Ocean (Acordes)

Zach Ashton

Subida por Estbango

Compartir


Imprimir FAQ
+A
-A

Texto

Desplazamiento

Transportador

Color de Fondo

Archivos

-A
+A
(intro)
    G      Em     C       D
E|-----3------0------0-------2-----
B|----3-3----0-0----1-1-----3-3----
G|---0---0--0---0--0---0---2---2---
D|------------------------0--------
A|----------------3----------------
E|--3------0-----------------------
    G   D/F#   Em    C        D
E|----3---0-------0------0-------2----
B|----3---3------0-0----1-1-----3-----
G|---0---2-2----0---0--0---0---2------
D|----------0-----------------0-------
A|-------------------3----------------
E|--3---2------0----------------------

(solo - intro)
    G     Em       C       D
E|-----5-5~~7-7---------7-7~~5-5---
B|-----7-7~~8-8---------8-8~~7-7---
G|---------------------------------
D|---------------------------------
A|---------------------------------
E|---------------------------------

   G D/F# Em         C       D         G
E|--------10-10-08-08-7--5--3----3----3--3h5-5-3-2-3-
B|--------12-12-10-10-9--7--5--5----5----------------
G|---------------------------------------------------
D|---------------------------------------------------
A|---------------------------------------------------
E|---------------------------------------------------

G     Em      C         D
ocean take me to your shore.
G     Em                    C         D
I haven't been there in so long, so long
G     Em      C         D
wind- blow sand on my skin,
G     Em                    C         D
Oh what I'd do to feel you again...again

C             D     G       D/F#        Em
And there's a girl i want to share you with.
C             D
she so far away
G   D/F#     Em
you are her gift
C            D      Em
ocean, bring her, down
E|---------------------
B|---------------------
G|---------------------
D|---------------------
A|-2-3-2---0-3-2-0-----
E|------------------3--

G     Em      C         D
ocean take me to your shore.
G     Em                    C         D
I haven't been there in so long, so long
G     Em      C         D
wind- blow sand on my skin,
G     Em                    C         D
Oh what I'd do to feel you again...again
C             D     G        D/F#        Em
And there's a girl i want to share you with.

C             D
she so far away
G    D/F#        Em
you are her gift
C             D     Em
ocean, bring her, down
E|---------------------
B|---------------------
G|---------------------
D|---------------------
A|-0-3-2---0-3-2-0-----
E|------------------3--

G  Em       C       D         G
baby, you know I'm dying and crying for you
Em                  C         D
to come on down to my ocean town
G
come on down and...
Em
come on down and...
C
come on down and...
D                       G
come on down to my ocean town
Em         C
ocean town why don't you?

come on down and...
come on down and...
come on down and...
come on down to my ocean town
ocean town why don't you?

I said...
come on down and...
come on down and...
come on down and...

HERRAMIENTAS ACORDESWEB:


LETRA DE LA CANCIÓN:

Ver la letra sola (sin acordes)

OTRAS VERSIONES DE LA MISMA CANCIÓN:

Ver. 2

DESCARGAR PDF / IMPRIMIR CANCIÓN



ACORDES PARA GUITARRA

PIANO UKELELE
G
Em
C
D
D/F#


TOP 20: Las más tocadas de Zach Ashton


Toca una Canción al Azar de Zach Ashton

Acordes

Cerrar
G
Em
C
D
D/F#

01.34

x

176