Quero Te Contar (Acordes)

Zero

Subida por mj672014

Compartir


Cambiar Cifrado
Americano Latino

Cambiar Tonalidad
-1 +1
Imprimir FAQ
+A
-A

Texto

Desplazamiento

Transportador

Color de Fondo

Archivos

TONALIDAD, TAMAÑO, CIFRADO, SCROL.

Nos renovamos: Ahora puedes cambiar TODO haciendo clic en ICONO de la Guitarra () que aparece en la parte inferior de esta página.


LETRA CON ACORDES

Intro:
E|-----------------------------------------------
B|-----------------------------------------------
G|-----------------------------------------------
D|-----------------------------------------------
A|-0-0--12-12-11-11-12-12--7-7-7-5-5-5-5-75-0---
E|-----------------------------------------------

E|-----------------------------------------------
B|-----------------------------------------------
G|-----------------------------------------------
D|-----------------------------------------------
A|---0--12-12-11-11-12-12--7-7-7-5-5-5-5-75-----
E|-------------------------------------------2---

E|-----------------------------------------------
B|-----------------------------------------------
G|-----------------------------------------------
D|-----------------------------------------------
A|------12-12-11-11-12-12--9-9-9-7-7-7-7-97-----
E|---2---------------------------------------2---

E|-----------------------------------------------
B|-----------------------------------------------
G|-----------------------------------------------
D|-----------------------------------------------
A|------12-12-11-11-12-12--9-9-9-7-7-7-7-9/7-0---
E|---2-------------------------------------------

A  F#m  G#m  A  B )

A                                        F#m
Parece bobo, eu sei mas é difícil confessar
A                                           F#m
Eu nunca imaginei que um dia eu ia te explicar

D      F#m        E   D         F#m           E
Eu preciso te contar... tantas coisas que passei
D        F#m            E
Enganos, surpresas e alguns amigos bem fiéis

A                                                 F#m
Eu tinha medo de me expor, mas você deve compreender
A                                                      F#m
Que é bem melhor falar de amor do que dos vícios do poder

D             F#m        E   D         F#m           E
Por isso eu quero te contar... tantas coisas que passei
D       F#m            E
Amores, tristezas e alguns amigos bem fiéis

A  E  D  A )

A                      E
Tantos motivos pra compor uma canção
           D                                 A                    C
Quase todos tão banais que as vezes eu me esqueço da paixão  hey yeah
                      A                       C
Como se a nova bossa nova não tivesse nada a ver
                          A
E os corações se arrependessem dos momentos de prazer
C                               A
E não lembrassem mais como era bom cantar sem se comprometer
    C                         A
Qualquer tolice com ou sem final feliz

A                                                   F#m
Tente esquecer o seu rancor porque hoje vamos aprender
A                                                      F#m
Que é bem melhor falar de amor do que dos vícios do poder

D         F#m         E   D         F#m           E
Agora eu posso te contar... tantas coisas que passei
D          F#m             E
Vertigens, princesas, e alguns amigos bem fiéis

Intro 2x: A  F#m  G#m  A  B

D         E             Bm
É bem melhor falar de amor...

Video Clip de Quero Te Contar


ACORDES PARA GUITARRA

PIANO UKELELE
A
F#m
G#m
B
D
E
C
Bm


TOP 20: Las más tocadas de Zero


Toca una Canción al Azar de Zero

Acordes

Cerrar
A
F#m
G#m
B
D
E
C
Bm

13.05

x

174