ENCUENTRA MAS CANCIONES EN WWW.ACORDESWEB.COM

Estaremos juntos
Millie Corretjer
Acordes


Más Versiones de esta Canción | Ver. 2 | Ver. 3 |
+A
-A
Intro:
Db Bbm Gb Ab
-------------------------------------------
-6-4-6br-4---6-4-6br-4---------------------
-----------6-----------6-3--6brp3----------
----------------------------------6---83--
-------------------------------------------
-------------------------------------------

Bb F Gm Dm Eb
Fué tu sonrisa, tu voz, tu forma de ser
Cm Bb F
lo que atrapo mi inspiración,
Cm Bb Ab F
convirtiéndote en mi nueva oración, vida

Bb F Gm Dm Eb
Por escucharme al hablar, por perdonar,
Cm Bb F
por tu forma transparente de amar,
Cm Bb Ab Bb
y por tanto que no puedo explicar, vida

Coros:
Eb Cm
Estaremos juntos desde el desierto al mar,
Fm Eb
hasta que el sol pierda sus días,
Ab Bb
y el mar no tenga olas.
Eb Cm
Estaremos juntos, por una eternidad
Fm Eb
y al tiempo mismo venceremos,
Ab Bb C Cm <-----Sólo se toca en al terminar el primer coro.
entre los dos no habrá final.

Bb F Gm Dm Eb
Le das la prisa al dolor, paciencia al amor
Cm Bb F
la experiencia cada nuevo temor,
Cm Bb Ab F
y a lo imposible la solución, vida.

Bb F Gm Dm Eb
Mis noches hablan de tí, me hacen sentir
Cm Bb F
que dependo de tu alma el vivir,
Cm Bb Ab Bb
y que respiro por tratarse de tí, vida

Coros

Fm Cm Bb Cm-Dm
Y seremos solamente tu y yo,
Eb Dm Cm
y a lo eterno llegará nuestra voz.
Fm Gm
La luna observa y llevará
Ab Bb B
tu nombre junto al mío, vida.

E C#m
Estaremos juntos desde el desierto al mar,
F#m E
hasta que el sol pierda sus días,
A B
y el mar no tenga olas.
E C#m
Estaremos juntos, por una eternidad
Fm Abm
y al tiempo mismo venceremos,
A E
y a las estrellas llegaremos
A B C#
entre los dos no habrá final.

Bbm G#m Ab Bb
-----------------------------------------------------------
-18-16-18br--16--------------------------------------------
-----------------18---15------------18br-13-------13br-10--
-----------------------------------------------------------
-----------------------------------------------------------
-----------------------------------------------------------
no habrá final no,no,no entre tu y yo.