ENCUENTRA MAS CANCIONES EN WWW.ACORDESWEB.COM

Not At All
Status Quo
Acordes

Álbum: Perfect Remedy (1989)

+A
-A
A great heavy blues track.
The video is a must see.

hide this tabHide tabE -----------------------------0-
B -----------------------------0-
G -97-9-----------------------1-
D -97-9--97-9---97-9--------2-
A -75-7--97-9---97-9--5---2-2-
E --------75-7---75-7--3-2-0-0- X2tab


E B
I say yes

I say no
E
Its like watching a river flow
B
Maybe shallow

Maybe deep
D
I won't lose any sleep
E
Oh Nooo

E B
Not at all would I

Take a fall for ya
E
Not at all 'cos you

want it all
E B
and ya try it on like a

sad old song don't ya
D C#m D D#5 E5
think its wrong how you carry on and on

hide this tabHide tabE ----8~-
B -2/8---
G -------
D -------
A -------
E -------


Solo:

E ------------------------------------------------------------------------
B -------------------10-12-10------------------7/8-10-12-10-10h12-----13~-
G -9b-9b-9b-11-11/12----------12-12-11-12--9-7--------------------12------
D ------------------------------------------------------------------------
A ------------------------------------------------------------------------
E ------------------------------------------------------------------------


E ----------------------------------------------------
B -------10-12-10-10---------------12-10-12-------13~-
G -11/12-------------12-12-11-12------------11/12-----
D ----------------------------------------------------
A ----------------------------------------------------
E ---------------------------------------------------- tab


Modulate semitone

F C
Not at all will I

Take a fall for ya
F
Not at all 'cos you

want it all
F C
and ya try it on like a

sad old song don't ya
Eb D5 Eb
think its wrong how you carry on




Keys solo to fade
F C C F F

F C C Eb5 D5 Eb5