Desde Que
Alvaro Abitia
Letra

+A
-A
LETRA (VER LETRA CON ACORDES)
Sin capo
Notación estandar eBGDAE

El intro y los riff son arpegiados, siguiendo los acordes es muy fácil de tocar. El ritmo de
de la canción terminando el riff 3 es un ritmo ranchero.

~~ Vibrato (dejar que la nota suene)

INTRO:



e|--3--------3-----|--2--------2-----|--0--------0-----|--0--------0-----|--0--------3~~---|
B|-------3-----3---|-------3-----3---|-------1-----1---|-------1-----1---|-------1---------|
G|-----0---0-----0-|-----2---2-----2-|-----0---0-----0-|-----0---0-----0-|-----0---0-------|
D|-----------------|--0--------------|-----------------|-----------------|-----------------|
A|-----------------|-----------------|--3--------------|--3--------------|--3--------------|
E|--3--------------|-----------------|-----------------|-----------------|-----------------|


RIFF 1



e|--3--------3-----|--3--------3-----|--2--------2-----|
B|-------3-----3---|-------3-----3---|-------3-----3---|
G|-----0---0-----0-|-----0---0-----0-|-----2---2-----2-|
D|-----------------|-----------------|--0--------------|
A|-----------------|-----------------|-----------------|
E|--3--------------|--3--------------|-----------------|


RIFF 2



e|--0--------0-----|--0--------0-----|--0--------0-----|--0--------0-----|--3--------3-----|
B|-------1-----1---|-------1-----1---|-------1-----1---|-------1-----1---|-------3-----3---|
G|-----0---0-----0-|-----0---0-----0-|-----0---0-----0-|-----0---0-----0-|-----0---0-----0-|
D|-----------------|-----------------|-----------------|-----------------|-----------------|
A|--3--------------|--3--------------|--3--------------|--3--------------|-----------------|
E|-----------------|-----------------|-----------------|-----------------|--3--------------|


RIFF 3



e|--3--------3-----|--2--------2-----|--0--------0-----|--3--------3-----|--3--------3-----|
B|-------3-----3---|-------3-----3---|-------1-----1---|-------3-----3---|-------3-----3---|
G|-----0---0-----0-|-----2---2-----2-|-----0---0-----0-|-----0---0-----0-|-----0---0-----0-|
D|-----------------|--0--------------|-----------------|-----------------|-----------------|
A|-----------------|-----------------|--3--------------|--3--------------|-----------------|
E|--3--------------|-----------------|-----------------|-----------------|--3--------------|


INTRO -


RIFF 1 -
Fomedete a través de la manzana de tu boca
RIFF 2 -
y no se decir si estás en mi locura en mi mañana

o es el deseo el que se equivoca

RIFF 3 - G D C G G


Un cuarto de luna en tatuaje en tu cintura

dos corazones rotos

haciendo del pasado una caricatura

para poder mirarnos a los ojos


Y te dije te quiero

desde el infierno desde dios

y te dije hasta luego

para no decirte adios

y te dije te amo

desde la duda y la certeza

y te deje mis manos

que no precisan de promesas


Desde que, desde que, desde que...





Y te dije te quiero

desde el infierno desde dios

y te dije hasta luego

para no decirte adios

y te dije te amo

desde la duda y la certeza

y te deje mis manos

que no precisan de promesas


Desde que, desde que, desde que...

---------------------------------------

ACORDES:

G [320033]
D [XX0232]
C [X32010]
CADD9 [X32033]

----------------------------------------

Ésta es mi primera tablatura y supongo que existen errores, así que si encuentran alguno
por favor notifiquenme: [email protected], ICQ: 62158895

Con una dedicatoria muy especial para mi flaca tan querida Liz.


Inicia Sesión para guardar
esta versión como favorita

COMENTARIOS

Aún no hay comentarios,

¡escribe el primero!

Para hacer una pregunta o dejar un comentario sobre esta canción, debes estar LOGUEADO

Las canciones más tocadas de Alvaro Abitia


Nuestro servidor se demoró 0.12 segundos en generar esta página. Eso fue realmente muy rápido!