Cuando te veo
Friguey
Letra

+A
-A
LETRA (VER LETRA CON ACORDES)
Intro: - - - (x2)

Solo1
e|------------------|
B|----5---5-5-7-5---|
G|----6---6-6-6-6---| x4
D|------------------|
A|------------------|
E|------------------|


Verso:

A veces pienso que deberia dejarte ir

ya no quiero herirte, ya no quiero seguir asi,

a veces pienso que a lo mejor

no soy el indicado para vos.


Puente2:

No se si es una retirada o una transicion

tan solo se que te quedaste en mi corazon

no llores mas mi niña por ahora me voy

a veces pienso que es lo mejor.


CORO:

Pero cuando te veo siento que lo olvido todo,

quisiera poder cuidarte, y alegrarte el corazon,

Baila esta cumbia mi niña la vida tan solo es una,

se rie se llora se desmorona pero vivirla es de lo mejor


(INTRO)
(SOLO1)


Verso:

Aveces pienso que deberia dejarte ir

ya no quiero herirte, ya no quiero seguir asi,

a veces pienso que a lo mejor

no soy el indicado para vos.


Puente2:

No se si debo alejarme o quedarme aqui,

tan solo se que tu recuerdo queda junto a mi

no llores mas mi niña por ahora me voy

a veces pienso que es lo mejor.


CORO:

Pero cuando te veo siento que lo olvido todo,

quisiera poder cuidarte, y alegrarte el corazon,

Baila esta cumbia mi niña la vida tan solo es una,

se rie se llora se desmorona pero vivirla es de lo mejor


Solo2
e|-------------------------------------------------|
B|-------------------------------------------------|
G|-/9-9-9-9--9-11-9----------11-11----9-11-9-------|
D|-----------------12----12-------12--------12-11--|
A|-------------------------------------------------|
E|-------------------------------------------------|

e|------------------------------------------------|
B|------------------------------------------------|
G|------9-9-------9----------------------------9--|
D|--11------11-12---12-11-9----9-12-12-9-11-12----|
A|------------------------------------------------|
E|------------------------------------------------|

e|-------------------------------------------------------------|
B|-/10-10-10-10--10-12^14-12-10----10-15-15-12-14-15-14-12-10--|
G|-------------------------------------------------------------|
D|-------------------------------------------------------------|
A|-------------------------------------------------------------|
E|-------------------------------------------------------------|

e|-----------------------------------------|
B|-10-14-14-10-12-14-12p10-12-12-10h12-12--|
G|-----------------------------------------|
D|-----------------------------------------|
A|-----------------------------------------|
E|-----------------------------------------|

e|-------------------------------------------------------------|
B|-17^19-17----15-14-12-14-12-10-12-10-9-10-9-7-9-7-5-7-5-3-5--|
G|-------------------------------------------------------------|
D|-------------------------------------------------------------|
A|-------------------------------------------------------------|
E|-------------------------------------------------------------|


CORO(x2)


CORO2:

Te veo... Lo olvido todo...

Poder cuidarte... El corazon...

Esta cumbia... Tan solo es una...

Se desmorona... Es de lo mejor



******************************************************************
Les dejo el link del video oficial:
http://www.youtube.com/watch?v=qGrZPp5gwIs

Aqui pueden verme haciendo el solo2:
http://www.youtube.com/watch?v=hAwduQ67k0I

El sitio oficial de friguey
http://friguey.com

Un Saludo a Friguey...


Inicia Sesión para guardar
esta versión como favorita

COMENTARIOS

Aún no hay comentarios,

¡escribe el primero!

Para hacer una pregunta o dejar un comentario sobre esta canción, debes estar LOGUEADO

Las canciones más tocadas de Friguey


Nuestro servidor se demoró 0.1 segundos en generar esta página. Eso fue realmente muy rápido!