Chicas malas
Joaquin Levinton
Letra

+A
-A
LETRA (VER LETRA CON ACORDES)
riff:
--------------------------------
--------------------------------
--------------------------------
--------4-----------4-----------
--3-2-0-4----3-2-0--4-----------
--------2-----------2-----------

--------------------------------
--------------------------------
--------------------------------
--------4-----------4-----------
--3-2-0-4-----3-2-0-4-----------(esta ves mas rapida)
--------2-----------2-----------

------------(*)
------------
------------
--------4---
--3-2-0-4---
--------2---
intro:
chicas malas..uohh (repite el riff 2 veces)


el amor le da dinero,y es el fruto del placer

que te hace vibrar el cuerpo y en la cama te va a enloquecer.


siempre fue mucho mas lista que las chicas de su edad

mientras todas estudiaban,ella se escapaba a trbajar...

ESTRIBILLO:
por que ellas son...(NO TOCA)

chicas malas..

por favor tratenme mal(*)

chicas malas..

por favor portense mal(*)

uohohoho,uohohoho,uohohoho,uohohoh,uohohoho(riff)


y baila como poseida, gime como un animal,

se quiere tomar mi sangre, por que formo parte del ritual.

no le leyo los juramentos de conducta y de moral,

tiene propios mandamientos que tampoco los va a respetar

ESTRIBILLO


el amor amor le da dinero y es el fruto del placer..

si queres podes amarla...pero vas a tener q pagar

ESTRIBILLO


ESPERO Q LA TOQUEN..
UN SALUDO A LA 138.

_MAGMA_


Inicia Sesión para guardar
esta versión como favorita

COMENTARIOS

Aún no hay comentarios,

¡escribe el primero!

Para hacer una pregunta o dejar un comentario sobre esta canción, debes estar LOGUEADO

Las canciones más tocadas de Joaquin Levinton


Nuestro servidor se demoró 0.08 segundos en generar esta página. Eso fue realmente muy rápido!