La partida..( de madre)
Seguimos perdiendo
Letra

+A
-A
LETRA (VER LETRA CON ACORDES)
PSSS AKI TA LA ROLA MAS RELAX DE LOS DE SEGUIMOS PERDIENDO!!

ES ALGO SENCILLA!!
SE LA DEDICO A LILY!!!
TE AMO BB!!

INTRO:

e--------0000----
B--------3111----
G--------0000----
D--3-------------
A-3-3------------
E----------------


Tal Vez

bebi mas de la cuenta

ahogandote en mis penas

ahogandote en promesas

te perdi


Tal Vez

Pedi mas de la cuenta

tal vez estas palabras

ke te di


No tengan importancia

Es Solo una DEsgracia

Para


Vuelve a mi,

llama tan solo kiero oir tu voz


Dame una historia dame una cancion
Larga distancia

para estar mucho mejor


Te dare

todas las horas en akel reloj
de madrugada

y cuando sale el sol

de soledades, de amor y de dolor.



e--------------------------------
B--------------------------------
G--------------------------------
D----3/5-5-5---------------------
A--------------------------------
E--------------------------------

e--------------------------------
B--------------------------------
G--------------------------------
D-----5-5-5-7-5-------5-5--------
A---------------7-5--------------
E-------------------7------------


e--------------------------------
B--------------------------------
G--------------------------------
D-----5-5-5-7-5------------------
A---------------7-5------8-8-----
E-------------------5------------


e--------------------------------
B--------------------------------
G--------------------------------
D--------------------------------
A----8-8-8--7-5----5-5-5--5-7-8-7
E--------------------------------


e--------------------
B--------------------
G--------------------
D-------5------------
A---5-3--------------
E--------------------


Sin apresurar las cosas te vere.

No dire una palabra tonta

no molestare

no hablare de tristezas largas

me tendre ke contener


no dire ke me stoy muriendo

no dire ke me estoy muriendo

Por volverte a ver...


(Y COMO SOY UN WEVON SOLO ME RESTA DECIR
KE DE AKI EN ADELANTE SE REPITE TANTO VERSO
COMO CORO)

Vuelve a mi
llama tan solo kiero oir tu voz
dame una historia
dame una cancion
larga distancia
para estar mucho mejor

Buskare
todas las fotos en akel cajon
alguna carta ke me hable de amort
y una botella para ahogar este dolor



Sin apresurar las cosas te vere.
No dire una palabra tonta
no molestare
no hablare de tristezas largas
me tendre ke contener

no dire ke me stoy muriendo
no dire ke me estoy muriendo
no dire ke me estoy muriendo

Por volverte a ver...


Inicia Sesión para guardar
esta versión como favorita

COMENTARIOS

Aún no hay comentarios,

¡escribe el primero!

Para hacer una pregunta o dejar un comentario sobre esta canción, debes estar LOGUEADO

Las canciones más tocadas de Seguimos perdiendo


Nuestro servidor se demoró 0.22 segundos en generar esta página. Eso fue realmente muy rápido!