Telefone Mudo
Victor y Leo
Letra

+A
-A
Mudar para Português
LETRA (VER LETRA CON ACORDES)
Canchaque - Piura - Perú

Prepromo 2010:``Emilio Espinoza¨¨

!!Vamos Perú!!

intro (2x) (Bb F C Bb Am Gm F)


E |-5-5-6-6/8----8---10---12---12---12---12---12---13----15--|
B |-6-6-8-8/10-10--11----13---13---13---13---13---15---17----|
G |----------------------------------------------------------|
D |----------------------------------------------------------|
A |----------------------------------------------------------|
E |----------------------------------------------------------|

(continuación)
E |--17-------17-----15-----13-----12-----10-----8--|
B |-18-------18-----17-----15-----13-----11-----10--|
G |-------------------------------------------------|
D |-------------------------------------------------|
A |-------------------------------------------------|
E |-------------------------------------------------|


Eu quero que risque meu nome da sua agenda

Esqueça meu telefone, não me ligue mais

Porque já estou cansado de ser o remédio

Pra curar seu tédio

Quando seus amores não lhe satisfaz

Cansei de ser o seu palhaço

Fazer o que sempre quis

Cansei de curar sua fossa

Quando você não se sentia feliz

Por isso é que decidi

O meu telefone cortar

Você vai discar várias vezes

Telefone mudo não pode chamar.

(repetir todo)


Inicia Sesión para guardar
esta versión como favorita

COMENTARIOS

Aún no hay comentarios,

¡escribe el primero!

Para hacer una pregunta o dejar un comentario sobre esta canción, debes estar LOGUEADO

Las canciones más tocadas de Victor y Leo


Nuestro servidor se demoró 0.02 segundos en generar esta página. Eso fue realmente muy rápido!