Blood In The Wall
Zakk Wylde
Letra

+A
-A
LETRA (VER LETRA CON ACORDES)
Intro/Verse
1. 2.

||------0-0--0-3--3-3-0--3-3-------3--3-3--3-3------------||-3---------------|
||o-0h1-1-1--1-1--1-1-1--1-1-------3--3-3--3-3-----------o||-3------3-------0|
||--2---2-2--2-2--2-2-2--2-2-------0--0-0--0-0--------0---||-0--2s4---4s2-0--|
||--2---2-2--2-2--2-2-2--2-2-------0--0-0--0-0------0-----||-0---------------|
||o-0---0-0--0-0--0-0-0--0-0--2-2--2--2-2--2-2--0h2------o||-2--------------o|
||----------------------------3-3--3--3-3--3-3------------||-3---------------|



solo melody thing
||
||
||
|79b10r=(9)(9)79b10r=95|
||
||


Chorus

|00003330000000|
|11113330001s3s10|
|00000000002s4s20|
|22220002222|
|33332222222|
|3330000|


Pre-Solo and Solo Riff

||-------------------------------------------------------------------||-|
||o-----------------------------------------------------------------o||-|
||------0-------0-------0-------0-------0-------0-------0-------0----||-|
||----4---4---4---4---4---4---4---4---2---2---2---2---2---2---2---2--||-|
||o-5-------5-------5-------5-------3-------3-------3-------3-------o||-|
||-------------------------------------------------------------------||-|

Intro-2 Times
Verse-2 Times
Chorus-4 Times
Verse-3 Times
Chorus-4 Times
Pre-Solo-4 Times
Solo-8 Times
Verse-2 Times


COMENTARIOS

Aún no hay comentarios,

¡escribe el primero!

Para hacer una pregunta o dejar un comentario sobre esta canción, debes estar LOGUEADO

Las canciones más tocadas de Zakk Wylde


Nuestro servidor se demoró 0.06 segundos en generar esta página. Eso fue realmente muy rápido!