Na linha do tempo
Victor y Leo
Cifras



Mais versões desta música| Ver. 2 | Ver. 3 |

Alterar tons
Americano Latino

Alterar TOM
-1 +1

Tela Dividida Impressão FAQ

+A
-A
Tono: F#(acordes na forma do tom D)
Cejilla en la 4ª casa

Introdução x2:


D
E|---------3------------------2------------|
B|-----3-------3----------3-------3--------|
G|---2---2---2---2------2---2---2---2------|
D|-0------------------0--------------------|
A|-----------------------------------------|
E|-----------------------------------------|



A
E|---------0------------------0------------|
B|-----2-------2----------2-------2--------|
G|---2---2---2---2------2---2---2---2------|
D|-----------------------------------------|
A|-0------------------0--------------------|
E|-----------------------------------------|



Bm
E|---------2------------------2------------|
B|-----3-------3----------3-------3--------|
G|---4---4---4---4------4---4---4---4------|
D|-----------------------------------------|
A|-2------------------2--------------------|
E|-----------------------------------------|



G
E|---------3------------------2------------|
B|-----3-------3----------3-------3--------|
G|---4---4---4---4------4---4---4---4------|
D|-----------------------------------------|
A|-3------------------3--------------------|
E|-----------------------------------------|



Primeira parte:

D A Bm
Eu te dei o ouro do sol, a prata da lua
G D
Te dei as estrelas pra desenhar o teu céu
A Bm
Na linha do tempo, o destino escreveu,
G
Com letras douradas

Você e eu


Segunda Parte:

D A Bm
Há quanto tempo eu esperava encontrar alguém assim

Que se encaixasse bem nos planos
G D
Que um dia fiz pra mim
E G
Você e eu
A
Vou dizer


Refrão:

D A
Que nessas frases tem um pouco de nós dois
Bm
Que não deixamos o agora pra depois

Quando te vejo eu me sinto tão completo
G A D
Por onde eu vou

A
E nesses traços vou tentando descrever
Bm
Que mil palavras é tão pouco pra dizer

Que o sentimento muda tudo, muda o mundo
G A D
Isso é o amor

(D A Bm G)(2x)

Repetições:

A Bm
Na linha do tempo, o destino escreveu
G
Com letras douradas

Você e eu

D A Bm
Há quanto tempo eu esperava encontrar alguém assim

Que se encaixasse bem nos planos
G D
Que um dia fiz pra mim
E G
Você e eu
A
Vou dizer

D A
Que nessas frases tem um pouco de nós dois
Bm
Que não deixamos o agora pra depois

Quando te vejo eu me sinto tão completo
G A D
Por onde eu vou

A
E nesses traços vou tentando descrever
Bm
Que mil palavras é tão pouco pra dizer

Que o sentimento muda tudo, muda o mundo
G A D
Isso é o amor
A
Que nessas frases tem um pouco de nós dois
Bm
Que não deixamos o agora pra depois

Quando te vejo eu me sinto tão completo
G A D
Por onde eu vou

A
E nesses traços vou tentando descrever
Bm
Que mil palavras é tão pouco pra dizer
G
Que o sentimento muda tudo, muda o mundo
G A D A
Isso é o amor
Bm G
Isso é o amor
D A Bm G
Amo__or

(tocar a introdução, retirando apenas a última nota do último acorde)

Dedilhado Final:


D
E|---------3------------------2------------|
B|-----3-------3----------3-------3--------|
G|---2---2---2---2------2---2---2---2------|
D|-0------------------0--------------------|
A|-----------------------------------------|
E|-----------------------------------------|



A
E|---------0------------------0------------|
B|-----2-------2----------2-------2--------|
G|---2---2---2---2------2---2---2---2------|
D|-----------------------------------------|
A|-0------------------0--------------------|
E|-----------------------------------------|



Bm
E|---------2------------------2------------|
B|-----3-------3----------3-------3--------|
G|---4---4---4---4------4---4---4---4------|
D|-----------------------------------------|
A|-2------------------2--------------------|
E|-----------------------------------------|



G
E|---------3------------------2------------|
B|-----3-------3----------3-------3--------|
G|---4---4---4---4------4---4---4----------|
D|-----------------------------------------|
A|-3------------------3--------------------|
E|-----------------------------------------|

Toque uma música aleatória de Victor y Leo



CIFRAS

Violão UKELELE
D
A
Bm
G
E



COMENTÁRIOS

Ainda não há comentários,

Escreva o primeiro!

Escreva um comentário ou pergunta sobre esta música




Mais músicas de Victor y Leo

  • Na linha do tempo
  • Mi yo en usted
  • Nada
  • Sigo Extrañandote
  • Você Sabia
  • Nada es normal
  • Amigo Locutor
  • Lembranças de amor
  • Fotos
  • Mariposas
  • Amigo Apasionado
  • Timidez
  • Fada
  • Recuerdos de amor
  • Deus e eu no sertao
  • Lembranças de amor
  • Eres Tu
  • Você Sabia
  • Nao Precisa
  • Borboletas
  • Seguinte

    D
    A
    Bm
    G
    E

    Nuestro servidor se demoró 0.06 segundos en generar esta página. Eso fue realmente muy rápido!