Chatterton (Acordes)

Ana Carolina

Subida por carochiurazzi

Compartir


Cambiar Cifrado
Americano Latino

Cambiar Tonalidad
-1 +1
Imprimir FAQ
+A
-A

Texto

Desplazamiento

Transportador

Color de Fondo

Archivos

TONALIDAD, TAMAÑO, CIFRADO, SCROL.

Nos renovamos: Ahora puedes cambiar TODO haciendo clic en ICONO de la Guitarra () que aparece en la parte inferior de esta página.


LETRA CON ACORDES

( Ana Carolina e Seu Jorge | versão ao vivo )


   E5  G5  A5    C5  A5
e|-----------------------|
B|-----------------------|
G|---------------5-5-----| ► Introdução 
D|-2-2-5-5-7-X-7-5-5-7-X-| ► riff 1 (esse riff é tocado quase a música toda)
A|-2-2-5-5-7-X-7-3-3-7-X-|
E|-0-0-3-3-5-X-5-----5-X-|

   C5              D5
e|-------------------------------|
B|-------------------------------|
G|-------5-----5---------7-----7-| ► riff 2
D|---5-------4-------7-------7---|
A|-3---3---3-----3/5---5---5-----|
E|-------------------------------|

    E5             D5
e|---------------------|
B|---------------------|
G|---------9-----9-7-7-| ► riff 3
D|-----9-------9---7-7-|
A|-5/7---7---7-----5-5-|
E|---------------------|


B5 A5 B5
Sangue sangue, sangue ...   

B5         A5   B5 
Chatterton Suicidou
   B5          A5  B5
Kurt Cobain Suicidou
   B5            A5  B5
Getúlio Vargas Suicidou
  C5      C#5
Nietzsche enlouqueceu 
D5                    B5
E... eu não vou nada bem 

   B5          A5  B5
Chatterton Suicidou
   B5        A5  B5
Cleopatra Suicidou
  B5       A5  B5
Isocrat Suicidou 
  C5       C#5 
Goia enlouqueceu 
D5                    B5
E... eu não vou nada bem

              B5
não vou nada bem
 B5      A5   B5
não vou nada bem

  B5          A5  B5
Chatterton Suicidou 
   B5            A5  B5
Marco Antonie Suicidou
   B5                   5  B5
Cleopatra (foda-se) Suicidou
  C5         C#5 
Shumam enlouqueceu 
D5                                   B5
E eu... puta que pariu não vou nada bem 

Todo mundo que vocês estiverem pensando Suicidou 

B5 A5 B5

* ESSA MUSICA FICA LEGAL SE TOCAR AS NOTAS COMO SE ESTIVESSE TOCANDO BAIXO, E NO VIOLÃO COM PESTANA

Video Clip de Chatterton


ACORDES PARA GUITARRA

PIANO UKELELE
E5
G5
A5
C5
D5
B5
C#5


TOP 20: Las más tocadas de Ana Carolina


Acordes

Cerrar
E5
G5
A5
C5
D5
B5
C#5

13.30

x

166