Uma Louca Tempestade (Acordes)

Ana Carolina

Full Álbum: Estampado (2003)
Subida por musico

Compartir


Cambiar Cifrado
Americano Latino

Cambiar Tonalidad
-1 +1
Imprimir FAQ
+A
-A

Texto

Desplazamiento

Transportador

Color de Fondo

Archivos

TONALIDAD, TAMAÑO, CIFRADO, SCROL.

Nos renovamos: Ahora puedes cambiar TODO haciendo clic en ICONO de la Guitarra () que aparece en la parte inferior de esta página.


LETRA CON ACORDES

[Intro]

e|--------------------------------------11-|
B|---------7-9-7-9-7-9-7-9-7-9-7-9-7--7----|
G|-8-6-8-8--------------------------8------|
D|-----------------------------------------|
A|-----------------------------------------|
E|-----------------------------------------|

F#  F#9+  F#4 )

[Primeira Parte]

     F#
Eu quero uma lua plena
     F#
Eu quero sentir a noite
     F#
Eu quero olhar as luzes
                                   B
Que teus olhos não me tem deixado ver
                F#
Agora eu vou viver

     F#
Eu quero sair de manhã
     F#
Eu quero seguir a estrela
     F#
Eu quero sentir o vento
                              B
Pela pele um pensamento me fará
                 F#
Uma louca tempestade

    B
Eu quero ser uma tarde gris
                                 D#m7
Quero que a chuva corra sobre o rio
   B
O rio que por ruas corre em mim
                                 D#m7
As águas que me querem levar tão longe
     B                       Bm6    F#
Tão longe que me façam esquecer de ti

F# - F# - F# )

     F#
Eu quero sair de manhã
     F#
Eu quero seguir a estrela
     F#
Eu quero sentir o vento
                              B
Pela pele um pensamento me fará
                 F#
Uma louca tempestade

     F#
Eu quero uma lua plena
     F#
Eu quero sentir a noite
     F#
Eu quero olhar as luzes
                                   B
Que teus olhos não me tem deixado ver
                F#
Agora eu vou viver

F# )

    B
Quero ser uma tarde gris
                              D#m7
Quero que a chuva corra sobre o rio
   B
O rio que por ruas corre em mim
                                  D#m7
As águas que me querem levar tão longe

     B
Eu quero ser uma tarde gris
                              D#m7
Quero que a chuva corra sobre o rio
   B
O rio que por ruas corre em mim
                                  D#m7
As águas que me querem levar tão longe
 B                          Bm6      F#   
Tão longe que me façam esquecer de ti

F# )

 B                          Bm6      F#   
Tão longe que me façam esquecer de ti

F# )

[Solo]
                                             

e|--------------------------------------11-16-14-16-14-11-14-|
B|---------7-9-7-9-7-9-7-9-7-9-7-9-7--7----------------------|
G|-8-6-8-8--------------------------8------------------------|
D|-----------------------------------------------------------|
A|-----------------------------------------------------------|
E|-----------------------------------------------------------|

Video Clip de Uma Louca Tempestade


ACORDES PARA GUITARRA

PIANO UKELELE
F#
F#4
B
D#m7
Bm6


TOP 20: Las más tocadas de Ana Carolina


Acordes

Cerrar
F#
F#4
B
D#m7
Bm6

19.56

x

167