A Dying Wish
Anathema
Acordes

Subida por peigallo
Álbum: The Silent Enigma ( 1995)



HERRAMIENTAS

Cambiar Cifrado
Americano Latino

Cambiar Tonalidad
-1 +1

Partir Pantalla Imprimir FAQ

Ver solo la LETRA

+A
-A

LETRA CON ACORDES

¿Tu Guitarra esta Afinada? PRUEBA NUESTRO NUEVO AFINADOR

G||--------------|---------------|---------------|---------------|
D||--------------|----2----------|----2----------|----2----------|
A||--------------|---------------|---------------|---------------|
E||--------------|---------------|---------------|---------------|



---------------|------------------|-----------------|-----------------|
----2----------|--0-------2----2--|--0-------2------|--4--0----4------|
---------------|-----3------------|-----3-----------|-----------------|
---------------|------------------|-----------------|-----------------|



-----------------|---------------|---------------|---------------|
--0--0----4------|----2----------|----2----------|----2----------|
-----------------|---------------|---------------|---------------|
-----------------|---------------|---------------|---------------|



---------------|------------------|-----------------|-----------------|
----2----------|--0-------2----2--|--0-------2------|--0--0----4------|
---------------|-----3------------|-----3-----------|-----------------|
---------------|------------------|-----------------|-----------------|



-----------------|---------------|---------------|---------------|
--0--0----4------|----2----------|----2----------|----2----------|
-----------------|---------------|---------------|---------------|
-----------------|---------------|---------------|---------------|



---------------|------------------|-----------------|-----------------|
----2----------|--0-------2----2--|--0-------2------|--0--0----4------|
---------------|-----3------------|-----3-----------|-----------------|
---------------|------------------|-----------------|-----------------|



-----------------|---------------|---------------|---------------|
--0--0----4------|----2----------|----2----------|----2----------|
-----------------|---------------|---------------|---------------|
-----------------|---------------|---------------|---------------|



---------------|------------------|-----------------|-----------------|
----2----------|--0-------2----2--|--0-------2------|--0--0----4------|
---------------|-----3------------|-----3-----------|-----------------|
---------------|------------------|-----------------|-----------------|



-----------------|--------------|--------------|--------------|--------------|
--0--0----4------|--------------|--------------|--------------|--------------|
-----------------|--------------|--------------|--------------|--------------|
-----------------|--------------|--------------|--------------|--------------|



--------------|--------------|--------------|--------------|--------------|
--------------|--------------|--------------|--------------|--------------|
--------------|--------------|--------------|--------------|--------------|
--------------|--------------|--------------|--------------|--------------|



--------------|--------------|--------------|--------------|--------------|
--------------|--------------|--------------|--------------|--------------|
--------------|--------------|--------------|--------------|--------------|
--------------|--------------|--------------|--------------|--------------|



--------------|--9/11/---12/9------|--------------|--------------|
--------------|--------------------|--------------|--------------|
--------------|--------------------|--------------|--------------|
--------------|--------------------|--------------|--------------|



--------------|--------------|--------------|--------------|--------------|
--------------|--------------|--------------|--------------|--------------|
--------------|--------------|--------------|--------------|--------------|
--------------|--------------|--------------|--------------|--------------|



--------------|--------------|--------------|--------------|--------------|
--------------|--------------|--------------|--------------|--------------|
--------------|--------------|--------------|--------------|--------------|
--------------|--------------|--------------|--------------|--------------|



--------------|--------------|--------------|--------------|----------------|
--------------|--------------|--------------|--------------|----------------|
--------------|--------------|--------------|--------------|--0h-2----------|
--------------|--------------|--------------|--------------|----------------|



---------------|----------------|---------------|---------------|
---------------|----------------|---------------|---------------|
---------------|--0h-2----------|---------------|--3------------|
--0------------|----------------|--0------------|---------------|



---------------|---------------|--------------|----------------|---------------|
---------------|---------------|--------------|----------------|---------------|
--3------------|--5------------|--------------|--0h-2----------|---------------|
---------------|---------------|--------------|----------------|--0------------|



----------------|---------------|---------------|---------------|
----------------|---------------|---------------|---------------|
--0h-2----------|---------------|--3------------|--3------------|
----------------|--0------------|---------------|---------------|



---------------|--------------|----------------|---------------|
---------------|--------------|----------------|---------------|
--5------------|--------------|--0h-2----------|---------------|
---------------|--------------|----------------|--0------------|



----------------|---------------|---------------|---------------|
----------------|---------------|---------------|---------------|
--0h-2----------|---------------|--3------------|--3------------|
----------------|--0------------|---------------|---------------|



---------------|--------------|----------------|---------------|
---------------|--------------|----------------|---------------|
--5------------|--------------|--0h-2----------|---------------|
---------------|--------------|----------------|--0------------|



----------------|---------------|---------------|---------------|
----------------|---------------|---------------|---------------|
--0h-2----------|---------------|--3------------|--3------------|
----------------|--0------------|---------------|---------------|



---------------|--------------|------------------|-------------------|
---------------|--------------|------------------|-------------------|
--5------------|--------------|------------------|-------------------|
---------------|--------------|--0----0--0--0----|--0----0--0--0--0--|



------------------|-------------------|------------------|-------------------|
------------------|-------------------|------------------|-------------------|
------------------|-------------------|------------------|-------------------|
--0----0--0--0----|--0----0--0--0--0--|--0----0--0--0----|--0----0--0--0--0--|



------------------|-----------------|------------------|-------------------|
------------------|--5--------------|------------------|-------------------|
------------------|---------7/---2--|--3----3--3--3----|--3----3--3--3--3--|
--0----0--0--0----|-----------------|------------------|-------------------|



------------------|-----------------|------------------|-------------------|
------------------|--5--------------|------------------|-------------------|
--3----3--3--3----|---------7/---2--|------------------|-------------------|
------------------|-----------------|--0----0--0--0----|--0----0--0--0--0--|



------------------|-------------------|------------------|-------------------|
------------------|-------------------|------------------|-------------------|
------------------|-------------------|------------------|-------------------|
--0----0--0--0----|--0----0--0--0--0--|--0----0--0--0----|--0----0--0--0--0--|



------------------|-------------------|------------------|-------------------|
------------------|-------------------|------------------|-------------------|
------------------|-------------------|------------------|-------------------|
--0----0--0--0----|--0----0--0--0--0--|--0----0--0--0----|--0----0--0--0--0--|



------------------|-----------------|------------------|-------------------|
------------------|--5--------------|------------------|-------------------|
------------------|---------7/---2--|--3----3--3--3----|--3----3--3--3--3--|
--0----0--0--0----|-----------------|------------------|-------------------|



------------------|-----------------|------------------|-------------------|
------------------|--5--------------|------------------|-------------------|
--3----3--3--3----|---------7/---2--|------------------|-------------------|
------------------|-----------------|--0----0--0--0----|--0----0--0--0--0--|



------------------|------------------|------------------|-----------------|
------------------|------------------|------------------|-----------------|
------------------|------------------|--0h-2------------|-----------------|
--0----0--0--0----|--0----0--0--0----|----------0----0--|--0--0----0------|



------------------|-----------------|-----------------|-----------------|
------------------|-----------------|-----------------|-----------------|
--0h-2------------|-----------------|--3------3----3--|--3--3----3------|
----------0----0--|--0--0----0------|-----------------|-----------------|



-----------------|-----------------|------------------|-----------------|
-----------------|-----------------|------------------|-----------------|
--5------5----5--|--5--5----5------|--0h-2------------|-----------------|
-----------------|-----------------|----------0----0--|--0--0----0------|



------------------|-----------------|-----------------|-----------------|
------------------|-----------------|-----------------|-----------------|
--0h-2------------|-----------------|--3------3----3--|--3--3----3------|
----------0----0--|--0--0----0------|-----------------|-----------------|



-----------------|-----------------|------------------|-----------------|
-----------------|-----------------|------------------|-----------------|
--5------5----5--|--5--5----5------|--0h-2------------|-----------------|
-----------------|-----------------|----------0----0--|--0--0----0------|



------------------|-----------------|-----------------|-----------------|
------------------|-----------------|-----------------|-----------------|
--0h-2------------|-----------------|--3------3----3--|--3--3----3------|
----------0----0--|--0--0----0------|-----------------|-----------------|



-----------------|-----------------|------------------|-----------------|
-----------------|-----------------|------------------|-----------------|
--5------5----5--|--5--5----5------|--0h-2------------|-----------------|
-----------------|-----------------|----------0----0--|--0--0----0------|



------------------|-----------------|-----------------|-----------------|
------------------|-----------------|-----------------|-----------------|
--0h-2------------|-----------------|--3------3----3--|--3--3----3------|
----------0----0--|--0--0----0------|-----------------|-----------------|



-----------------|-----------------|------------------|-------------------|
-----------------|-----------------|------------------|-------------------|
--5------5----5--|--5--5----5------|------------------|-------------------|
-----------------|-----------------|--0----0--0--0----|--0----0--0--0--0--|



------------------|-------------------|------------------|-------------------|
------------------|-------------------|------------------|-------------------|
------------------|-------------------|------------------|-------------------|
--0----0--0--0----|--0----0--0--0--0--|--0----0--0--0----|--0----0--0--0--0--|



------------------|-----------------|------------------|-------------------|
------------------|--5--------------|------------------|-------------------|
------------------|---------7/---2--|--3----3--3--3----|--3----3--3--3--3--|
--0----0--0--0----|-----------------|------------------|-------------------|



------------------|-----------------|------------------|-------------------|
------------------|--5--------------|------------------|-------------------|
--3----3--3--3----|---------7/---2--|------------------|-------------------|
------------------|-----------------|--0----0--0--0----|--0----0--0--0--0--|



------------------|-------------------|------------------|-------------------|
------------------|-------------------|------------------|-------------------|
------------------|-------------------|------------------|-------------------|
--0----0--0--0----|--0----0--0--0--0--|--0----0--0--0----|--0----0--0--0--0--|



------------------|-------------------|------------------|-------------------|
------------------|-------------------|------------------|-------------------|
------------------|-------------------|------------------|-------------------|
--0----0--0--0----|--0----0--0--0--0--|--0----0--0--0----|--0----0--0--0--0--|



------------------|-----------------|------------------|-------------------|
------------------|--5--------------|------------------|-------------------|
------------------|---------7/---2--|--3----3--3--3----|--3----3--3--3--3--|
--0----0--0--0----|-----------------|------------------|-------------------|



------------------|-----------------|------------------|-------------------|
------------------|--5--------------|------------------|-------------------|
--3----3--3--3----|---------7/---2--|------------------|-------------------|
------------------|-----------------|--0----0--0--0----|--0----0--0--0--0--|



------------------|------------------|-----------------|----------------|
------------------|------------------|-----------------|----------------|
------------------|------------------|--0h2-------2----|--2--------2----|
--0----0--0--0----|--0----0--0--0----|-----------------|----------------|



-----------------|----------------|-----------------|----------------|
-----------------|----------------|-----------------|----------------|
--0h-2------2----|--2--------2----|--2h3-------3----|--3--------3----|
-----------------|----------------|-----------------|----------------|



-----------------|----------------|-----------------|----------------|
-----------------|----------------|-----------------|----------------|
--3h5-------5----|--5--------5----|--0h2-------2----|--2--------2----|
-----------------|----------------|-----------------|----------------|



-----------------|----------------|-----------------|----------------|
-----------------|----------------|-----------------|----------------|
--0h-2------2----|--2--------2----|--2h3-------3----|--3--------3----|
-----------------|----------------|-----------------|----------------|



-----------------|----------------|-----------------|----------------|
-----------------|----------------|-----------------|----------------|
--3h5-------5----|--5--------5----|--0h2-------2----|--2--------2----|
-----------------|----------------|-----------------|----------------|



-----------------|----------------|-----------------|----------------|
-----------------|----------------|-----------------|----------------|
--0h-2------2----|--2--------2----|--2h3-------3----|--3--------3----|
-----------------|----------------|-----------------|----------------|



-----------------|----------------|-----------------|----------------|
-----------------|----------------|-----------------|----------------|
--3h5-------5----|--5--------5----|--0h2-------2----|--2--------2----|
-----------------|----------------|-----------------|----------------|



-----------------|----------------|-----------------|----------------|
-----------------|----------------|-----------------|----------------|
--0h-2------2----|--2--------2----|--2h3-------3----|--3--------3----|
-----------------|----------------|-----------------|----------------|



---------------|--------------|--------------|--------------|--------------|
---------------|--------------|--------------|--------------|--------------|
--5------------|--------------|--------------|--------------|--------------|
---------------|--------------|--------------|--------------|--------------|



--------------|--------------|--------------|--------------|--------------|
--------------|--------------|--------------|--------------|--------------|
--------------|--------------|--------------|--------------|--------------|
--------------|--------------|--------------|--------------|--------------|



--------------|--------------|--------------|--------------|--------------|
--------------|--------------|--------------|--------------|--------------|
--------------|--------------|--------------|--------------|--------------|
--------------|--------------|--------------|--------------|--------------|



--------------|--------------|------------------|-----------------|
--------------|--------------|------------------|-----------------|
--------------|--------------|------------------|-----------------|
--------------|--------------|--8--8--8--8------|--------8--8--8--|



---------------|------------------|---------------|--------------|
---------------|------------------|---------------|--------------|
---------------|------------------|---------------|--------------|
--8------------|--8--8--8--8------|--0------------|--------------|



--------------|--------------|---------------|--------------|--------------|
--------------|--------------|---------------|--------------|--------------|
--------------|--------------|---------------|--------------|--------------|
--------------|--------------|--0------------|--------------|--------------|



--------------|---------------|--------------|--------------|--------------|
--------------|---------------|--------------|--------------|--------------|
--------------|---------------|--------------|--------------|--------------|
--------------|--0------------|--------------|--------------|--------------|



------------------|-----------------|---------------|------------------|
------------------|-----------------|---------------|------------------|
------------------|-----------------|---------------|------------------|
--8--8--8--8------|--------8--8--8--|--8------------|--8--8--8--8------|



----------------|--------------|--------------|--------------|---------------|
----------------|--------------|--------------|--------------|---------------|
----------------|--------------|--------------|--------------|---------------|
--0--------0----|--------------|--------------|--------------|--8------------|



--12----------12----|-------12----------|--11---------9----|---------------|
--------10----------|-------------10----|--------9---------|---------------|
--------------------|-------------------|------------------|--0------------|
--------------------|--7----------------|------------------|---------------|



--------10h-9h-7--|--9------------|------------------|---------------|
------------------|---------------|------------------|---------------|
------------------|---------------|------------------|---------------|
------------------|---------------|--0----0--0----0--|--8------------|



--12----------12----|-------12----------|--11---------9----|---------10h-9h-7--|
--------10----------|-------------10----|--------9---------|-------------------|
--------------------|-------------------|------------------|--0----------------|
--------------------|--7----------------|------------------|-------------------|



--9------10h-9h-7--|--9------10h-9h-7--|--------------------|---------------|
-------------------|-------------------|--------------------|---------------|
-------------------|-------------------|--------------------|---------------|
-------------------|-------------------|--12----12----12----|--8------------|



--12----------12----|-------12----------|--11---------9----|---------------|
--------10----------|-------------10----|--------9---------|---------------|
--------------------|-------------------|------------------|--0------------|////////////////// ¿Te Animas? Sube una canción a este sitio. //////////////////

ACORDES PARA GUITARRA

PIANO UKELELE


COMENTARIOS

Aún no hay comentarios,

¡escribe el primero!

Escribe una pregunta, duda o comentario sobre esta canción, te responderemos a la brevedad.

Las canciones más tocadas de Anathema

Toca una Canción al Azar de Anathema

09.14


Nuestro servidor se demoró 0.01 segundos en generar esta página. Eso fue realmente muy rápido!