A Fine Day To Exit

Anathema

Acordes

A Fine Day to Exit (2001)
Subida por M1capas



Cambiar Cifrado
Americano Latino

Cambiar Tonalidad
-1 +1

Partir Pantalla Imprimir FAQ

+A
-A


Ver solo la LETRA
G||------------------||-------------------|------------------|
D||------------------||*------------------|------------------|
A||------------------||*------------------|------------------|
E||------------------||-------------------|------------------|



2x
------------------|-------------------||--12h-10--12------------|
------------------|------------------*||------------------------|
------------------|------------------*||------------------------|
------------------|-------------------||------------------------|



------------------|------------------|--15--------12--------|------------------|
------------------|------------------|----------------------|------------------|
------------------|------------------|----------------------|------------------|
------------------|------------------|----------------------|------------------|



------------------|--12h-10--8------------|------------------|
------------------|-----------------------|------------------|
------------------|-----------------------|------------------|
------------------|-----------------------|------------------|



--12----------------|------------------|------------------|------------------|
--------------------|------------------|------------------|------------------|
--------------------|------------------|------------------|------------------|
--------------------|------------------|------------------|------------------|






--12h-10--12------------|------------------|------------------|
------------------------|------------------|------------------|
------------------------|------------------|------------------|
------------------------|------------------|------------------|



--15--------12--------|------------------|------------------|
----------------------|------------------|------------------|
----------------------|------------------|------------------|
----------------------|------------------|------------------|



--12h-10--8------------|------------------|--12----------------|
-----------------------|------------------|--------------------|
-----------------------|------------------|--------------------|
-----------------------|------------------|--------------------|



------------------|------------------|------------------|
------------------|------------------|------------------|
------------------|------------------|------------------|
------------------|------------------|------------------|



|-------------------------------|------------------------------|
|*------------------------------|------------------------------|
|*--3--3-3-3-3-3--3--3-3-3--3-3-|--3-3-3--3--3-3-3--3-3-3-3-3--|
|-------------------------------|------------------------------|



------------------------------|------------------------------|
------------------------------|------------------------------|
--3--3-3-3--3-3-3-3-3--3--3-3-|--3--3-3-3-3-3--3--3-3-3--3-3-|
------------------------------|------------------------------|



------------------------------|------------------------------|
------------------------------|------------------------------|
--3-3-3--3--3-3-3--3-3-3-3-3--|--3--3-3-3--3-3-3-3-3--3--3-3-|
------------------------------|------------------------------|



------------------------------|------------------------------|
------------------------------|------------------------------|
--1--1-1-1-1-1--1--1-1-1--1-1-|--1-1-1--1--1-1-1--1-1-1-1-1--|
------------------------------|------------------------------|



------------------------------|------------------------------|
------------------------------|------------------------------|
--1--1-1-1--1-1-1-1-1--1--1-1-|--3--3-3-3-3-3--3--3-3-3--3-3-|
------------------------------|------------------------------|



------------------------------|-------------------------------||
------------------------------|------------------------------*||
--3-3-3--3--3-3-3--3-3-3-3-3--|--3--3-3-3--3-3-3-3-3--3--3-3-*||
------------------------------|-------------------------------||



------------------------------|------------------------------|
------------------------------|------------------------------|
------------------------------|------------------------------|
--1--1-1-1-1-1--1--1-1-1--1-1-|--1-1-1--1--1-1-1--1-1-1-1-1--|



------------------------------|-------------------|------------------|
------------------------------|-------------------|------------------|
------------------------------|--3----------------|------------------|
--1--1-1-1--1-1-1-1-1--1--1-1-|-------------------|------------------|



------------------|------------------|------------------|------------------|
------------------|------------------|------------------|------------------|
------------------|------------------|------------------|------------------|
------------------|------------------|------------------|------------------|



------------------|------------------|------------------|------------------|
------------------|------------------|------------------|------------------|
------------------|------------------|------------------|------------------|
------------------|------------------|------------------|------------------|



------------------|------------------|--12h-10--12------------|
------------------|------------------|------------------------|
------------------|------------------|------------------------|
------------------|------------------|------------------------|



------------------|------------------|--15--------12--------|------------------|
------------------|------------------|----------------------|------------------|
------------------|------------------|----------------------|------------------|
------------------|------------------|----------------------|------------------|



------------------|--12h-10--8------------|------------------|
------------------|-----------------------|------------------|
------------------|-----------------------|------------------|
------------------|-----------------------|------------------|



--12----------------|------------------|------------------|------------------|
--------------------|------------------|------------------|------------------|
--------------------|------------------|------------------|------------------|
--------------------|------------------|------------------|------------------|



|-------------------------------|------------------------------|
|*------------------------------|------------------------------|
|*--3--3-3-3-3-3--3--3-3-3--3-3-|--3-3-3--3--3-3-3--3-3-3-3-3--|
|-------------------------------|------------------------------|



------------------------------|------------------------------|
------------------------------|------------------------------|
--3--3-3-3--3-3-3-3-3--3--3-3-|--3--3-3-3-3-3--3--3-3-3--3-3-|
------------------------------|------------------------------|



------------------------------|------------------------------|
------------------------------|------------------------------|
--3-3-3--3--3-3-3--3-3-3-3-3--|--3--3-3-3--3-3-3-3-3--3--3-3-|
------------------------------|------------------------------|



------------------------------|------------------------------|
------------------------------|------------------------------|
--1--1-1-1-1-1--1--1-1-1--1-1-|--1-1-1--1--1-1-1--1-1-1-1-1--|
------------------------------|------------------------------|



------------------------------|------------------------------|
------------------------------|------------------------------|
--1--1-1-1--1-1-1-1-1--1--1-1-|--3--3-3-3-3-3--3--3-3-3--3-3-|
------------------------------|------------------------------|



------------------------------|-------------------------------||
------------------------------|------------------------------*||
--3-3-3--3--3-3-3--3-3-3-3-3--|--3--3-3-3--3-3-3-3-3--3--3-3-*||
------------------------------|-------------------------------||



------------------------------|------------------------------|
------------------------------|------------------------------|
------------------------------|------------------------------|
--1--1-1-1-1-1--1--1-1-1--1-1-|--1-1-1--1--1-1-1--1-1-1-1-1--|



------------------------------|------------------------------|
------------------------------|------------------------------|
------------------------------|--3--3-3-3-3-3--3--3-3-3--3-3-|
--1--1-1-1--1-1-1-1-1--1--1-1-|------------------------------|



------------------------------|------------------------------|
------------------------------|------------------------------|
--3-3-3--3--3-3-3--3-3-3-3-3--|--3--3-3-3--3-3-3-3-3--3--3-3-|
------------------------------|------------------------------|



------------------------------|------------------------------|
------------------------------|------------------------------|
--3--3-3-3-3-3--3--3-3-3--3-3-|--3-3-3--3--3-3-3--3-3-3-3-3--|
------------------------------|------------------------------|



------------------------------|------------------------------|
------------------------------|------------------------------|
--3--3-3-3--3-3-3-3-3--3--3-3-|--1--1-1-1-1-1--1--1-1-1--1-1-|
------------------------------|------------------------------|



------------------------------|------------------------------|
------------------------------|------------------------------|
--1-1-1--1--1-1-1--1-1-1-1-1--|--1--1-1-1--1-1-1-1-1--1--1-1-|
------------------------------|------------------------------|



------------------------------|------------------------------|
------------------------------|------------------------------|
--3--3-3-3-3-3--3--3-3-3--3-3-|--3-3-3--3--3-3-3--3-3-3-3-3--|
------------------------------|------------------------------|



------------------------------|------------------------------|
------------------------------|------------------------------|
--3--3-3-3--3-3-3-3-3--3--3-3-|------------------------------|
------------------------------|--1--1-1-1-1-1--1--1-1-1--1-1-|



------------------------------|------------------------------|
------------------------------|------------------------------|
------------------------------|------------------------------|
--1-1-1--1--1-1-1--1-1-1-1-1--|--1--1-1-1--1-1-1-1-1--1--1-1-|



-------------------|------------------|------------------|------------------|
-------------------|------------------|------------------|------------------|
--3----------------|------------------|------------------|------------------|
-------------------|------------------|------------------|------------------|

NUEVO FORO DE MÚSICA

¿Tienes alguna duda, consulta, pregunta, consejo o algo para compartir sobre esta canción?

¡Puedes abrir un hilo en el FORO para que la comunidad te ayude! Hacer una pregunta

ACORDES PARA GUITARRA

PIANO UKELELE


Las más tocadas de Anathema