Gore Gore Gadget

Annotations of an Autopsy

Acordes

Subida por jjjaavvvii



Cambiar Cifrado
Americano Latino

Cambiar Tonalidad
-1 +1

Partir Pantalla Imprimir FAQ

+A
-A


Ver solo la LETRA
Song:    Gore Gore Gadget
Band: Annotations Of An Autopsy
Album: Welcome To Sludge City
Tuning: Drop b

PM - Palm mute
* - Pinch harmonic
# - natural harmonic
- Slide down
/ - Slide up
x - Mute string
~ - Vibrato
^ - rapid pick (tremolo pick)
(note)- Ghost note
\- pick slide
(2x)- play single staff again
<<<2x- play whole part again

Thanks for reading this tab. I'm sorry for the part where it got screwed up because i
it on microsoft word and pasted it into here. just paste it into notepad or something or
deal with it. its not that hard to get. Also, if you think something's wrong or you want
talk about it, (or if you want an un-screwed up version i can email it to you) comment
or write me at [email protected]

Intro (2x) <<<2x
|---------------------|----------------------------------------------|
|---------------------|----------------------------------------------|
|---------------------|----------------------------------------------|
|-0-0-0---------------|-0-0-0-----------------------------10^-9^-----|
|-0-0-0-8^-11^-10^-7^-|-0-0-0-8^-11^-10^-7^-8^-11^-10^-7^--------11--|
|-0-0-0---------------|-0-0-0----------------------------------------|
PM. . . . . .

(Short Rest)

Verse (2x) (2x)
|-----------------------|-----------------------|-------------------------|
|-----------------------|-----------------------|-------------------------|
|-----------------------|-----------------------|-------------------------|
|-----------------------|-----------------------|----------6^----------3^-|
|-----------------------|-------------------0-0-|-3-2-0(0)----3-2-0(0)----|
|-8^-8^-7^-8^-10^--8^7^-|-5^-5^-3^-2^-3^--2^0-0-|-3-2-0(0)----3-2-0(0)----|
PM . . . . . . . .

<<<2x
--------------------------------------------------------------------|
--------------------------------------------------------------------|
-----------4--3-----------------------------------4-3-6-5-10-10-9-6-|
-----------x--x-----------6^----------3^----------x-x-x-x-x--x--x-x-|
--3-2-0(0)-2--1--3-2-0(0)----3-2-0(0)----3-2-0(0)-2-1-4-3-8--8--7-4-|
--3-2-0(0)-------3-2-0(0)----3-2-0(0)----3-2-0(0)-------------------|
PM. . . . . . . . . . . . . . . .


Fill 1 (2x) (2x)but end on: 1st 2nd
|-----------------------|--------------------| |-----|----|
|-----------------------|--------------------| |-----|----|
|-----------------------|--------------------| |-----|----|
|-----------------------|--------------------| |-----|-0--|
|-----------------------|--------------------| |-----|-0--|
|-8^-8^-7^-8^-10^--8^7^-|-5^-5^-3^-2^-3^--2^-| |-0-0-|-0--|

<<<2x
|---------------------------------------------------------------------------------------|
|---------12------12---------------------------------12------12-------------------------|
|---------15------15-0h3h7-0h3h7-0h3h6-0h3h6---------15------15-0h3h5-0h3h5-0h3h5p0h3p0-|
|---------------------------------------------------------------------------------------|
|-000-000----000-----------------------------000-000----000-----------------------------|
|-000-000----000-----------------------------000-000----000-----------------------------|
PM... ... ... ... ... ...

End on:
|-----| << note: slowly touch
|-----| << the string on 5th fret
|-0#5-| << to make the harmonic.
|-----|
|-----|
|-----|

Harmonics riff (4x) (2x)
|------------------------------|----------------------------------|
|------------------------------|----------------------------------|
|------3*----------------------|--------3*------------------------|
|-2--1-----------2--1-3*-1-0-0-|-2^--1^-----------2^--1^-3*-1-0-0-|
|-2--1----1-0-0--2--1----1-0-0-|-2^--1^----1-0-0--2^--1^----1-0-0-|
|-2--1----1-0-0--2--1----1-0-0-|-2^--1^----1-0-0--2^--1^----1-0-0-|
PM. . . . . . . . . . . . .


<<<2x
|------------------------------------|
|------------------------------------|
|--------------------------3*-----2*-|
|------------------------------------|
|-0-2-1-2-4-2-1-2--0-4-2-1----1-0----|
|-0-2-1-2-4-2-1-2--0-4-2-1----1-0----|
PM. . . . . . . . . . . . . .

<<<2x
|----------------------------|
|----------------------------|
|---------------------3*--2*-|
|----------------------------|
|-0--2--1--2--4--2--1---0----|
|-0--2--1--2--4--2--1---0----|
PM. . . . . . . .

|-------------------------------------------------------|
|-------------------------------------------------------|
|-------------------------------------------------------|
|-------------5h8p5h8p5---------------------------------|
|-0000-0-0-00-----------4h7p4h7p4-5h8p5h8p5-7h10p7h10p7-|
|-0000-0-0-00-------------------------------------------|
PM.... . . ..

<<<2x
------------------------------------------------------|
------------------------------------------------------|
------------------------------------------------------|
--------------5h8p5h8p5-------------------------------|
--0000-0-0-00-----------4h7p4h7p4-5h8p5h8p5-1h4p1h4p1-|
--0000-0-0-00-----------------------------------------|
PM.... . . ..

3333-3-3
And I'm definatly not mistaken at the 2222-2-2 thing.
|-----------------------------------------------------------------------------|
|-----------------------------------------------------------------------------|
|-----------------------------------------------------------------------------|
|------------------------------------------------2h5p2h5p2----------2h3p2h3p2-|
|-0000-0-0-5h8p5h8p5-0000-0-0-4h7p4h7p4-3333-3-3-----------3333-3-3-----------|
|-0000-0-0-----------0000-0-0-----------2222-2-2-----------2222-2-2-----------|
PM.... . . .... . . .... . . .... . .
<<<2x
-------------------------------------------------------------------------------|
-------------------------------------------------------------------------------|
----------------------------------------------------------------------------10-|
-----------3h7p3h7p3----------3h5p3h5p3----------7h10p7h10p7----------------12-|
--3333-3-3-----------3333-3-3-----------7777-7-7-------------10101010-10-10-12-|
--3333-3-3-----------3333-3-3-----------7777-7-7-------------10101010-10-10----|
PM.... . . .... . . .... . . . . . . . .
^
On last time ring
this note out.


breakdown (2x) (2x)
|---------------------------------|---------------------------------|
|---------------------------------|---------------------------------|
|---------------------------------|---------------------------------|
|-3p0-3p0-3p0-3p0-2p0-2p0-2p0-2p0-|-5p2-5p2-5p2-5p2-3p2-3p2-3p2-3p2-|
|---------------------------------|---------------------------------|
|---------------------------------|---------------------------------|

(2x)
|---------------------------------|-----------------------------------------|
|---------------------------------|-----------------------------------------|
|---------------------------------|-----------------------------------------|
|-7p3-7p3-7p3-7p3-5p3-5p3-5p3-5p3-|-7h10p7h10p7h10p7h10p7h10p7h10p7h10p7h10-|
|---------------------------------|-----------------------------------------|
|---------------------------------|-----------------------------------------|

Fill 2
|-------------|
|-------------|
|-10----9-----|
|-12----11----|
|-12----11----|
|-------------|

Ending <<<2x
|-------------------------------------------|
|-------------------------------------------|
|-------------------------------------------|
|---------------------6h9p6h9h6---5h8p5h8p5-|
|-0--3--2--1--6--5--3-----------2-----------|
|-0--3--2--1--6--5--3-----------2-----------|
PM. . . . . .

Super Slow ending/Outro <<<2x
|-------------------------------------------------------------------------|
|-------------------------------------------------------------------------|
|-------------------------------------------------------------------------|
|---------------------------------6 h 9 p 6 h 9 h 6-----5 h 8 p 5 h 8 p 5-|
|-0----3----2----1----6----5----3--------------------2--------------------|
|-0----3----2----1----6----5----3--------------------2--------------------|
PM. . . . . .


End on:
|-------||
|-------||
|-------||
|-------||
|-0--0--||
|-0--0--||


NUEVO FORO DE MÚSICA

¿Tienes alguna duda, consulta, pregunta, consejo o algo para compartir sobre esta canción?

¡Puedes abrir un hilo en el FORO para que la comunidad te ayude! Hacer una pregunta

ACORDES PARA GUITARRA

PIANO UKELELE


Las más tocadas de Annotations of an Autopsy