Welcome To Sludge City

Annotations of an Autopsy

Acordes

Subida por Danielsosa



Cambiar Cifrado
Americano Latino

Cambiar Tonalidad
-1 +1

Partir Pantalla Imprimir FAQ

+A
-A
Album - Welcome to Sludge City
Label - This City is Burning
Website - http://*
*

. - Palm Mute
* - Pinch Harmonic
~ - Let Ring


---------------------------------------------------|
---------------------------------------------------|
---------------------------------------------------|
-0--0-0-0--0-0-------------------------------------|
-0--0-0-0--0-0-8-8-8-8-8-8-8-8-7-7-7-7-5-5-5-5-----|
-0--0-0-0--0-0-------------------------------------|
. . . . . .

---------------------------------------------------|
---------------------------------------------------|
---------------------------------------------------|
-0--0-0-0--0-0-------------------------------------|
-0--0-0-0--0-0-8-8-8-8-8-8-8-8-7-7-7-7-10-10-10-10-|
-0--0-0-0--0-0-------------------------------------|
. . . . . .

---------------------------------------------------|
---------------------------------------------------|
---------------------------------------------------|
-0--0-0-0--0-0-------------------------------------|
-0--0-0-0--0-0-8-8-8-8-8-8-8-8-7-7-7-7-------------|
-0--0-0-0--0-0-------------------------10-10-10-10-|
. . . . . .

----------------------------------------------------------------------------------|
----------------------------------------------------------------------------------|
----------------------------------------------------------------------------------|
-0--0-0-0--0-0--------------------------------------------------------------------|
-0--0-0-0--0-0-8-8-8-8-7-7-7-7------------10-10-10-10-8-8-8-8-7-7-7-7-------------|
-0--0-0-0--0-0-----------------10-10-10-10----------------------------10-10-10-10-|
. . . . . .

Play everything above once, then slow it down and play the same thing again

----------------------------------------------------|
----------------------------------------------------|
----------------------------------------------------|
----------------------------------------------------|
-3-3-2-2----5-5-3-3---------------------------------|
---------3-3--------3-3-1-1-1-1---------------------|

Play the Above four times alone then four times again with two guitars.

----------------------------------------------------|
----------------------------------------------------|
----------------------------------------------------|
-1-2-1-3-2-1-2-1------------------------------------|
-1-2-1-3-2-1-2-1-After four times do this pinch-----|
-1-2-1-3-2-1-2-1--------------------------------1---|
. . . . . . . . *

Then after four more times through the crawl part play this pinch

----------------------------------------------------|
----------------------------------------------------|
----------------------------------------------------|
----------------------------------------------------|
-3--------------------------------------------------|
----------------------------------------------------|
*

----------------------------------------------------|
----------------------------------------------------|
----------------------------------------------------|
-1-2-1-3-2-1-------1-2-1-3-2-1-2-1------------------|
-1-2-1-3-2-1-------1-2-1-3-2-1-2-1------------------|
-1-2-1-3-2-1-------1-2-1-3-2-1-2-1------------------|
. . . . . . . . . . . . . .

Play the Above twice

----------------------------------------------------|
----------------------------------------------------|
----------------------------------------------------|
-0~-------------------------------------------------|
-0~-------------------------------------------------|
-0~-------------------------------------------------|

-------------------------------------------------------------|
-------------------------------------------------------------|
-------------------------------------------------------------|
-1-1-1-1------------------1-1-1-1-1-1-1-1--------------------|
-1-1-1-1--2-x8-3-x8-------1-1-1-1-1-1-1-1-3-x4-2-x4-6-x4-5x4-|
-0-0-0-0------------3x19?-0-0-0-0-0-0-0-0--------------------|
. . . . . . . . . . . .

Play the Above twice

----------------------------------------------------|
----------------------------------------------------|
----------------------------------------------------|
-0-0-0-----0-0-0-0--0-0-0-0-3-2-6-5-----------------|
-0-0-0-----0-0-0-0--0-0-0-0-3-2-6-5-----------------|
-0-0-0-----0-0-0-0--0-0-0-0-3-2-6-5-----------------|
. . . . . . . . . . . . . . .

Play the Above twice

----------------------------------------------------|
----------------------------------------------------|
----------------------------------------------------|
-3----2---------------------------------------------|
-2-x8-1-x8------------------------------------------|
-3----2---------------------------------------------|
. .

Play the Above twice

----------------------------------------------------|
----------------------------------------------------|
----------------------------------------------------|
----------------------------------------------------|
----------------------------------------------------|
-3-x16-2-x8-1-x8------------------------------------|

Play the above twice

----------------------------------------------------|
----------------------------------------------------|
----------------------------------------------------|
----------------------------------------------------|
-3-3-3-3------2-2------4-4--------------------------|
-2-2-2-2-2-x8-1-1-1-x4-3-3-4-x4---------------------|
-3-3-3-3------2-2------4-4--------------------------|
. . . . . . . .

Play the above 4 times, then slow it down and play an additional 4 times.

Thats the song.
If you have any questions feel free to contact me
AIM - xchasegrillox
Myspace - *

NUEVO FORO DE MÚSICA

¿Tienes alguna duda, consulta, pregunta, consejo o algo para compartir sobre esta canción?

¡Puedes abrir un hilo en el FORO para que la comunidad te ayude! Hacer una pregunta

ACORDES PARA GUITARRA

PIANO UKELELE


Las más tocadas de Annotations of an Autopsy