Compartir


Cambiar Cifrado
Americano Latino

Cambiar Tonalidad
-1 +1
Imprimir FAQ
+A
-A

Texto

Desplazamiento

Transportador

Color de Fondo

Archivos

Mudar para Português

TONALIDAD, TAMAÑO, CIFRADO, SCROL.

Nos renovamos: Ahora puedes cambiar TODO haciendo clic en ICONO de la Guitarra () que aparece en la parte inferior de esta página.


LETRA CON ACORDES

Intro: (G Am C D G D) 2x

Solo da Introdução:

E|--7---10---10-12-8---8-7-------8-10-12-10---8-7------------------|
B|-------------------------10-8-------------------10-8---8-10-8---|
G|----------------------------------------------------------------|
D|----------------------------------------------------------------|
A|----------------------------------------------------------------|
E|----------------------------------------------------------------|
                                                                    
      G
Todo dia no mar do farol
Vejo você num banho de sol
Am
Uma figura linda
Raio de luz que brilha em
       G
meus olhos
Am
Dia dos namorados
 C                         G
Nós dois abraçados a sós          Bis 

Riff1:
E|--------9-10~---|
B|--8-12----------|
G|----------------|
D|----------------|
A|----------------|
E|----------------|

D
Só você me deixa encabulado
 C
Só você me deixa feliz
               G
de papo pro ar
                D
Depois da festa

Riff2:
E|---------------------------|
B|--10-12-13-17--15-13--15~--|
G|---------------------------|
D|---------------------------|
A|---------------------------|
E|---------------------------|

D
Venha ver
Um raio de beleza
 C
Venha ver
Se o brilho da natureza 
   G
ecoou
                D
Por trás da serra
 G                        C
Vem me dar    Vem me ver
                   G
Vem voar no prazer 
Vem me ter
               D            G
 Porque sou louco por você
  G                      C
 Vem me dar    Vem me ver
                  G
Vem voar no prazer 
Vem me ter
                D        G
Porque sou louco por você
 G                           C
Vem me dar    Vem me ver
                  G
Vem voar no prazer 
Vem me ter
                D     C    D
Porque sou louco por você
          G      D
Lá no farol
(G Am C D G D)
Lá, lá, lá

Video Clip de Dia dos namorados


ACORDES PARA GUITARRA

PIANO UKELELE
G
Am
C
D


TOP 20: Las más tocadas de Asa de Águia


Acordes

Cerrar
G
Am
C
D

09.57

x

208