Simbora (Acordes)

Asa de Águia

Subida por Trovadicto

Compartir


Cambiar Cifrado
Americano Latino

Cambiar Tonalidad
-1 +1
Imprimir FAQ
+A
-A

Texto

Desplazamiento

Transportador

Color de Fondo

Archivos

Mudar para Português

TONALIDAD, TAMAÑO, CIFRADO, SCROL.

Nos renovamos: Ahora puedes cambiar TODO haciendo clic en ICONO de la Guitarra () que aparece en la parte inferior de esta página.


LETRA CON ACORDES

 C#m                   B 
    Simbora ê, Simbora ô  
                C#m 
    lê lê lê lê ô ! 
 C#m                   B 
    Simbora ê, Simbora lá  
                C#m 
    lê lê lê lê á !


E|-4-4---------------------------------------------
B|-----5-5-----------7-7-4-4----------------------- 
G|---------6-6-4-4-----------4-4-6-6--------------- 
D|------------------------------------------------- 
A|------------------------------------------------- 
E|------------------------------------------------- 
                                                         | SOLO |
E|-4-4---------------------------------------------
B|-----5-5--------------4-------------------------- 
G|---------6-6-4-4--4-6---4-6---------------------- 
D|------------------------------------------------- 
A|------------------------------------------------- 
E|-------------------------------------------------
 

C#m                                   B 
    O sol já foi embora, e o agito da rua chegou 
                         C#m 
    É mais uma noite de festa 
                                     B 
    Luminosa como sempre, agito da Bahia 
                                            C#m 
    Lembrando vaga-lumes lá no meio da floresta  

| SOLO |

C#m                                       B 
    Nossa paixão é fogo, papai já lhe chamou 
                                           C#m 
    Não sai de minissaia que o bicho já pegou 
                                   B 
    Tomar  um golinho não vai resolver 
                                      C#m 
    Do jeito que ela bebe ela vai querer  

              B                      E 
    Abre a clareira que ela vai sambar 
                   B                C#m 
    É samba com galope da Bahia ia ia    
              B                      E 
    Abre a clareira que ela vai sambar 
                   G#            C#m 
    É samba com galope da Bahia  


 C#m                   B 
    Simbora ê, Simbora ô  
                C#m 
    lê lê lê lê ô ! 
 C#m                   B 
    Simbora ê, Simbora lá  
                C#m 
    lê lê lê lê á !

Video Clip de Simbora


ACORDES PARA GUITARRA

PIANO UKELELE
C#m
B
E
G#


TOP 20: Las más tocadas de Asa de Águia


Acordes

Cerrar
C#m
B
E
G#

12.38

x

93