Compartir


Cambiar Cifrado
Americano Latino

Cambiar Tonalidad
-1 +1
Imprimir FAQ
+A
-A

Texto

Desplazamiento

Transportador

Color de Fondo

Archivos

Mudar para Português

TONALIDAD, TAMAÑO, CIFRADO, SCROL.

Nos renovamos: Ahora puedes cambiar TODO haciendo clic en ICONO de la Guitarra () que aparece en la parte inferior de esta página.


LETRA CON ACORDES

(Durval Lelys e Bajara)



e|-9-9-12-9--------9----9-9--10-9-----9--9-9-10-9--9--9-9-9-10-9-------------------------------
B|-12-9-10-12-10-9--10-----12----10-12-----------12-------------12-9-10-12-10-9---10--10-10-12-
G|--------------------11--------------------------------------------------------11--11---------

9-12-10-9-12-10-9-12-10-9-----------------9----9-9--10-9-----9---9-9-9-10-9---------------------
--------------------------12-9-10-12-10-9--10-----12----10-12--------------12-9-10-12-10-9--10--
---------------------------------------------11-------------------------------------------11--11

--------10-9---------|
10-10-12----10-12-10-|
---------------------|

   C                G
Jurei ser fiel a você
              C  F
Te amar todo dia
   C                F
Viver um romance feliz
                G
No perfume da flor

     Am
Só quero te dar
   F
O meu coração
    Am
Sentir o sabor
    F
Da nossa paixão

   C
É linda
   G
É bela
  Am     F
A emoção

C             G
Nosso amor é lenda
     Am                      F
Brilhou na espada de um lutador
C       G
Virou poema
     Am
Nos versos da canção
    F
Da nobre sedução

C         G    Am
Venceu a honra
          F
Do gladiador
C        G                    Am  F
Viveu a vida por seu grande amor
C        G
Tô feliz
        Am
Tô legal
                 F
Tô de bem com a vida

Video Clip de Gladiador


ACORDES PARA GUITARRA

PIANO UKELELE
C
G
F
Am


TOP 20: Las más tocadas de Asa de Águia


Acordes

Cerrar
C
G
F
Am

05.26

x

285