Prometo Te Esperar (Acordes)

Asa de Águia

Subida por Natasha

Compartir


Cambiar Cifrado
Americano Latino

Cambiar Tonalidad
-1 +1
Imprimir FAQ
+A
-A

Texto

Desplazamiento

Transportador

Color de Fondo

Archivos

Mudar para Português

TONALIDAD, TAMAÑO, CIFRADO, SCROL.

Nos renovamos: Ahora puedes cambiar TODO haciendo clic en ICONO de la Guitarra () que aparece en la parte inferior de esta página.


LETRA CON ACORDES

 Intro: AM7  Bm7  E7 A
E|-9-9--12-9----9-9--12-9----9------------------9----------|
B|-----------12-----------12---12-10----12-12-----12-10----|
G|-----------------------------------11-----------------11-|
D|---------------------------------------------------------|
A|---------------------------------------------------------|
E|---------------------------------------------------------|

E|-10-10-10-10--9-9-9-9------------------------------------|
B|----------------------12-12-12-12-10-9-10-12-10----------|
G|------------------------------------------------11-9-----|
D|---------------------------------------------------------|
A|---------------------------------------------------------|
E|---------------------------------------------------------|

E|-9-9--12-9----9-9--12-9----9------------------9----------|
B|-----------12-----------12---12-10----12-12-----12-10----|
G|-----------------------------------11-----------------11-|
D|---------------------------------------------------------|
A|---------------------------------------------------------|
E|---------------------------------------------------------|

E|-10-10-10-10--9-9-9-9------------------------------------|
B|----------------------12-12-12-12-10-9-10-12-10-9-10-----|
G|---------------------------------------------------------|
D|---------------------------------------------------------|
A|---------------------------------------------------------|
E|---------------------------------------------------------|

   AM7
Simbora amor
          Bm7
Chegou a hora de zarpar
  E7
Fazer levantar poeira
             A
No fundo do mar

     AM7
Amor e dor
            Bm7
Não quero mais rimar
      E7
Eu quero é pegar
                      A
Essa onda pra ver onde dá

                   D    E
Se você vem comigo amor
          C#m7   F#m
Prometo te esperar
                     Bm7
Mas se não for a hora
                E7             A    A4  A
Agente se encontra em qualquer lugar

                 D    E
Se você vem comigo amor
          C#m7   F#m
Prometo te esperar
           Bm7
Vou guardar o sorriso em meu peito
           C#m7
Quando bate a paixão não tem jeito
        D
Mais cedo ou mais tarde
                       E
Agente vai ter que se amar

                 A
E vai ser tão lindo amor
            G#m
Agente fazendo amor
    F#m7
Teus olhos comendo meus olhos
              E7
Com a boca sedenta de tanto prazer
      D     E
Teu corpo amor
            C#m7  F#m
É um porto seguro
        Bm7          E7
Que abriga meu barco
            A
Até o amanhecer

Video Clip de Prometo Te Esperar


ACORDES PARA GUITARRA

PIANO UKELELE
Am7
Bm7
E7
A
D
E
C#m7
F#m
A4
G#m
F#m7


TOP 20: Las más tocadas de Asa de Águia


Acordes

Cerrar
Am7
Bm7
E7
A
D
E
C#m7
F#m
A4
G#m
F#m7

22.29

x

179