Invulnerable
Barón Rojo
Acordes

Subida por TGOITO



Más Versiones de esta Canción | Ver. 2 |

Cambiar Cifrado
Americano Latino

Cambiar Tonalidad
-1 +1

Partir Pantalla Imprimir FAQ

+A
-A

LETRA Y ACORDES

|----------------|

|----------------|
|----------------|
|----------------| Riff 1
|--7-7-7-9-7-4---|
|--5-5-5-7-5-2---|

|----------------|
|----------------|
|----------------|
|----------------| Riff 2
|--7-7-7-6-2-4---|
|--5-5-5-4-0-2---|

|---------------|
|---------------|
|---------------|
|---------------| Riff 3
|--7--9--7--5---|
|--5--7--5--3---|

La cancion comienza con una intro que es un conjunto del riff 1 y riff 2.

Luego empieza:

Invulnerable me siento Riff 1
a ese ataque feroz Riff 2
de unos nuevos traidores Riff 1
profetas del fin del rock Riff 2

Tienen complejo de viejos Riff 1
y necesitan buscar Riff 2
entre esnobismo y basura Riff 1
la nueva revolución Riff 2

piensan que es fácil defenestrar |
mas de veinte años de creación | Aqui suena
desde los Beatles a Ac/Dc | el riff 3
desde Chuck Berry a Converdale |

Pasamos de tecnocracia | Aqui hay un
de isótopos y candor | pequeño punteo

Seguiré cantando rock & roll |
seguiré mientras alumbre el sol | Estribillo
somos duros de pelar | Estribillo*

Las modas pasan volando Riff 1
no tienen fuerza vital Riff 2
se idean en el despacho Riff 1
de una multinacional Riff 2

Sus argumentos de dan igual |
siempre logramos sobrevivir | Riff 3
sobra energía para seguir |
plantando cara a la adversidad |

Pasamos de tecnocracia | Pequeño Punteo
de isótopos y candor |

Seguiré cantando rock & roll |
seguiré mientras alumbre el sol | Estribillo
somos duros de pelar | Estribillo*

|---------------------------------------------------|
|---------------------------------------------------|
|---------------------------------------------------|
|-----7--3-----5--2-----3--0------------------------| Pequeño punteo
|--5--------5--------3--------1--7-7-7-7-7-7-7-7-7--|
|--------------------------------5-5-5-5-5-5-5-5-5--|

|------------------|
|------------------|
|------------------|
|------------------| Estribillo
|--9--7--4--4-4-4--|
|--7--5--2--2-2-2--|

|------------------------|
|------------------------|
|------------------------|
|------------------------| Estribillo*
|--9--7--9--7--9--7--5---|
|--7--5--7--5--7--5--3---|

Recuerda que #AcordesWeb.com se mantiene en línea gracias al aporte de nuestros anunciantes.

Toca una Canción al Azar de Barón Rojo



ACORDES

PIANO UKELELE



COMENTARIOS

Aún no hay comentarios,

¡escribe el primero!

Escribe un comentario o pregunta sobre esta canción




Más canciones de Barón Rojo

  • No Odas
  • Siempre estás allí
  • Hiroshima
  • Hijos de Caín
  • Incomunicación
  • Hermano del rock and roll
  • Dame la oportunidad
  • Barón Rojo
  • Cuerdas de acero
  • Tren Fantasma
  • Campo de concentración
  • Todos los rockeros van al infierno
  • Concierto para ellos
  • Satánico Plan
  • El Barón vuela sobre Inglaterra
  • Opening 1
  • Pura Sangre
  • Botas sucias
  • Invulnerable
  • Las flores del mal
  • Siguiente


    Nuestro servidor se demoró 0.27 segundos en generar esta página. Que velocidad!