Had To Cry Today
Blind Faith
Acordes

Subida por RobertShomi
Álbum: Blind Faith ( 1969)
|----------------------------------1-3-1-|----------------------------------1-3-1-|
|----------------------------------3-5-3-|----------------------------------3-5-3-|
|-------3--------------------------3-5-3-|-------3--------------------------3-5-3-|
|-3h5-5---5p3---------0------------3-5-3-|-3h5-5---5p3---------0------------3-5-3-|
|------------5----1p3---3p1---1----1-3-1-|------------5----1p3---3p1---1----1-3-1-|
|---------------------------3---3--1-3-1-|---------------------------3---3--1-3-1-|
(Repeat from here 2nd verse)
|----------------------------------1-3-1-|----------------------------------1-3-1-|
|----------------------------------3-5-3-|----------------------------------3-5-3-|
|-------3--------------------------3-5-3-|-------3--------------------------3-5-3-|
|-3h5-5---5p3---------0------------3-5-3-|-3h5-5---5p3---------0------------3-5-3-|
|------------5----1p3---3p1---1----1-3-1-|------------5----1p3---3p1---1----1-3-1-|
|---------------------------3---3--1-3-1-|---------------------------3---3--1-3-1-|
C7
|-3--------------------------------------|----------------------------------1-3-1-|
|-5--------------------------------------|----------------------------------3-5-3-|
|-3--------------------------------------|-------3--------------------------3-5-3-|
|-5--------------------------------------|-3h5-5---5p3---------0------------3-5-3-|
|-3--------------------------------------|------------5----1p3---3p1---1----1-3-1-|
|-3--------------------------------------|---------------------------3---3--1-3-1-|
(1)It's already written that today will be one to remember
(2)I'm taking the chance to see the wind in your eyes while I listen

C7
|-3--------------------------------------|----------------------------------1-2---|
|-5--------------------------------------|----------------------------------3-4---|
|-3--------------------------------------|-------3--------------------------3-4---|
|-5--------------------------------------|-3h5-5---5p3---------0------------3-4---|
|-3--------------------------------------|------------5----1p3---3p1---1----1-2---|
|-3--------------------------------------|---------------------------3---3--1-2---|
(1)The feeling's the same as being outside of the law
(2)You say you can't reach me but you want every thing to be free

E7 F#7 Am6 C#m CCC A
|-7------0------0------4----333-5------------------------|
|-9------9------9------5----555-5------------------------|
|-7------9------9------6----555-6------------------------|
|-9------8------7------6----555-7------------------------|
|-7------9------8------4----333-7------------------------|
|-------------------------------5------------------------|
Had to cry today

E7 F#7 Am6 C#m C Bb
|-7------0------0---------------------------4---------------3---------------1-|
|-9------9------9---------------------------5---------------5---------------3-|
|-7------9------9---------------------------6---------------5---------------3-|
|-9------8------7---------------------------6---------------5---------------3-|
|-7------9------8---------------------------4---------------3---------------1-|
|-----------------------------------------------------------------------------|
Well, I saw your face and I missed you there

(Lead)
|----------------------------------1-3-1-|----------------------------------1-3-1-|
|----------------------------------3-5-3-|----------------------------------3-5-3-|
|-------3--------------------------3-5-3-|-------3--------------------------3-5-3-|
|-3h5-5---5p3---------0------------3-5-3-|-3h5-5---5p3---------0------------3-5-3-|
|------------5----1p3---3p1---1----1-3-1-|------------5----1p3---3p1---1----1-3-1-|
|---------------------------3---3--1-3-1-|---------------------------3---3--1-3-1-|

(Repeat 2nd Verse)

Had to cry today ...
(Open Jam???????????????)(Bass plays same)
|----------------------------------1-3-1-|----------------------------------1-3-1-|
|----------------------------------3-5-3-|----------------------------------3-5-3-|
|-------3--------------------------3-5-3-|-------3--------------------------3-5-3-|
|-3h5-5---5p3---------0------------3-5-3-|-3h5-5---5p3---------0------------3-5-3-|
|------------5----1p3---3p1---1----1-3-1-|------------5----1p3---3p1---1----1-3-1-|
|---------------------------3---3--1-3-1-|---------------------------3---3--1-3-1-|

(Last time)
|----------------------------------1-3-1-|----------------------------------1-2---|
|----------------------------------3-5-3-|----------------------------------3-4---|
|-------3--------------------------3-5-3-|-------3--------------------------3-4---|
|-3h5-5---5p3---------0------------3-5-3-|-3h5-5---5p3---------0------------3-4---|
|------------5----1p3---3p1---1----1-3-1-|------------5----1p3---3p1---1----1-2---|
|---------------------------3---3--1-3-1-|---------------------------3---3--1-2---|



Otras Versiones

Cambiar Cifrado
Americano Latino

Cambiar Tonalidad
-1 +1

Partir Pantalla Imprimir FAQ

+A
-A

ACORDES PARA GUITARRA

PIANO UKELELE
C7
E7
F#7
Am6
C#m
A
C
Bb



COMENTARIOS

Aún no hay comentarios,

¡escribe el primero!

Escribe un comentario o pregunta sobre esta canción


TOP 20: Las más tocadas de Blind Faith

Ver más

Toca una Canción al Azar de Blind Faith
C7
E7
F#7
Am6
C#m
A
C
Bb

Nuestro servidor se demoró 0.03 segundos en generar esta página. Eso fue realmente muy rápido!