Presence Of The Lord
Blind Faith
Acordes

Subida por mario12
Álbum: Blind Faith ( 1969)



Cambiar Cifrado
Americano Latino

Cambiar Tonalidad
-1 +1

Partir Pantalla Imprimir FAQ

+A
-A
LETRA CON ACORDES

Intro:
C F Em Dm C F Em Dm
|-0----1----0----1--|-0----1----0----1--|
|-1----1----0----3--|-1----1----0----3--|
|-0----2----0----2--|-0----2----0----2--|
|-2----3----2----0--|-2----3----2----0--|
|-3----3----2----0--|-3----3----2----0--|
|------1----0-------|------1----0-------|

C F Em Dm C F Em Dm
|-0----1----0----1--|-0----1----0----1--|
|-1----1----0----3--|-1----1----0----3--|
|-0----2----0----2--|-0----2----0----2--|
|-2----3----2----0--|-2----3----2----0--|
|-3----3----2----0--|-3----3----2----0--|
|------1----0-------|------1----0-------|

C G Am
I have finally found a way to live
F C F Em Dm
Just like I never could before.
C G Am
I know that I don't have much to give,
D7 G7 Em G Am
But I can open any door.

Am F Em G Am
Everybody knows the secret,
Am D
Everybody knows the score, yeah yeah yeah yeah.

C G Am
I have finally found a way to live
F G C
In the color of the Lord.

C F Em Dm C F Em Dm
|-0----1----0----1--|-0----1----0----1--|
|-1----1----0----3--|-1----1----0----3--|
|-0----2----0----2--|-0----2----0----2--|
|-2----3----2----0--|-2----3----2----0--|
|-3----3----2----0--|-3----3----2----0--|
|------1----0-------|------1----0-------|

C G Am
I have finally found a place to live
F C F Em Dm
Just like I never could before.
C G Am
I know that I don't have much to give,
D7 G7 Em G Am
But I can open any door.

Am F Em G Am
Everybody knows the secret,
Am D
Everybody knows the score.

C G Am
I have finally found a way to live
F G C
In the presence of the Lord.
F G C
In the presence of the Lord.

Guitar Solo (Wah-Pedal):
|--------------------------------|-------------------------------------|
|--------------------------------|----------------------------------10-|
|-------------------------5------|-------------------------5h7--7/9----|
|-------------------5h7-------7-|-------------------5h7---------------|
|-------3h5---5h7----------------|-------3h5---5h7---------------------|
|-3h5----------------------------|-3h5---------------------------------|

|-12p15-------12-------12-------12-------12-------12-------12-------12-12------------|
|-------15b17----17b15----17b15----17b15----17b15----17b15----17b15-------15---------|
|------------------------------------------------------------------------------14-14-|
|------------------------------------------------------------------------------------|
|------------------------------------------------------------------------------------|
|------------------------------------------------------------------------------------|

|--------------------------------------------------------------------------|
|--------------------------------------------------------------------------|
|-12h14-14-14-14p12-12-12---------------------------9-12----12h14-14-14-14-|
|-------------------------14-10------------10-10-12------------------------|
|-------------------------------12---10h12---------------------------------|
|--------------------------------------------------------------------------|

|--------------------------------------------------------------------------------------------------|
|--------------------------------------------------------------------------------------------------|
|-14p12----14p12----14p12----14p12----14p12----14p12----14p12----14p12-----------------------------|
|-------14-------14-------14-------14-------14-------14-------14-------14-12----10h12p10----10-----|
|----------------------------------------------------------------------------------------12----12-|
|--------------------------------------------------------------------------------------------------|

|-------10----10---------------------------------------10-----------------------------------------|
|----------------13---------------------------13b15-------13-10-----------------------------------|
|-/11------11-------12b14b12-11----------11---------------------10-12p10--------------------------|
|-------------------------------12---12----------------------------------12-----------------------|
|---------------------------------------------------------------------------10---8--10p8----8-----|
|----------------------------------------------------------------------------------------10---10-|

|-----12----------12----------------------------------12----15b17-15-12h15p12----12-------|
|----------15b17-----15-12-------------------------------12-------------------15----15b17-|
|-/13----------------------14b16-14-12h14p12-------13-------------------------------------|
|--------------------------------------------14-------------------------------------------|
|-----------------------------------------------------------------------------------------|
|-----------------------------------------------------------------------------------------|

|-----------------------10---10----10---------8------8------6------6----------3-----3---|
|-15-12-15p12-------------------13---------------11------------9-----9-----------6------|
|-------------14---11--------------------/9---------------7----------------4------------|
|---------------------------------------------------------------------------------------|
|---------------------------------------------------------------------------------------|
|---------------------------------------------------------------------------------------|

|--------12--------10--------8-------------15----15----------------------------------------|
|----------------------------------15b17------17----17-13----13----15b17-------------------|
|-/12-------12--10----10---9------------------------------14-------------------------------|
|------------------------------------------------------------------------------------------|
|------------------------------------------------------------------------------------------|
|------------------------------------------------------------------------------------------|



C G Am
(From " I have finally found a way to live")
|---------------------------------------------|
|-17b15--13--15--13-13-------13--17b15--13-13-|
|---------------------------------------------|
|---------------------------------------------|
|---------------------------------------------|
|---------------------------------------------|

F C F Em Dm
(From " Just like I never could before.")
|------15---15h17--15------15------------------|
|-/17------------------/17----17---/13--13--13-|
|----------------------------------------------|
|----------------------------------------------|
|----------------------------------------------|
|----------------------------------------------|

C G Am
I know that I don't have much to give,
D7 G7 Em G Am
But I can open any door.

Am F Em G Am
(From "Everybody knows the secret,")
|-20b22----17--17h20--17------------|
|-------------------------20--20b22-|
|-----------------------------------|
|-----------------------------------|
|-----------------------------------|
|-----------------------------------|

Am D
(From "Everybody knows the score")
|-----------------------------------------------------------------------|
|-22b20--17-----------------------------------------20------------------|
|-----------19b21--19b21--19b21b19-17-----17h19b21------21b19p17-----17-|
|-------------------------------------19-------------------------19-----|
|-----------------------------------------------------------------------|
|-----------------------------------------------------------------------|

C G Am
(From " I have finally found a way to live")
|------------20-------------------|
|---------20----------------------|
|-19b21-----------21b19-17--------|
|---------------------------17h19-|
|---------------------------------|
|---------------------------------|

F G C
(From " In the color of the Lord.")
|----------------------12-|
|----------10-13-13-10----|
|-10h12-------------------|
|-------------------------|
|-------------------------|
|-------------------------|

F G C
(From " In the color of the Lord.")
|-----------------------------------------------------|
|-13-10-13b15b13-10-13------11-----11-----11----------|
|---------------------------10b12--10b12--12b10-------|
|-----------------------------------------------13-10-|
|-----------------------------------------------------|
|-----------------------------------------------------|

ACORDES PARA GUITARRA

PIANO UKELELE



COMENTARIOS

Aún no hay comentarios,

¡escribe el primero!

Escribe un comentario o pregunta sobre esta canción


TOP 20: Las más tocadas de Blind Faith

Ver más

Toca una Canción al Azar de Blind Faith

Nuestro servidor se demoró 0.01 segundos en generar esta página. Eso fue realmente muy rápido!