Holocene

Bon Iver

Acordes

Bon Iver, Bon Iver (2011)
Subida por Coronayulissa14


Más Versiones
Ver. 2 Ver. 3 Ver. 4 Ver. 5 Ver. 6

Cambiar Cifrado
Americano Latino

Cambiar Tonalidad
-1 +1

Partir Pantalla Imprimir FAQ

+A
-A


Ver solo la LETRA
 Intro & Verso
E|-------------|-------------|---------|-------------|-------------|
B|---3---3---0-|---3---3---0-|---0---0-|---0---0---0-|---0---0---0-|
G|-----0---4---|-----0---4---|-----0---|-----0---2---|-----0---2---|
D|-5-----------|-5-----------|-2-------|-0-----------|-0-----------|
A|-------------|-------------|---------|-------------|-------------|
E|-------------|-------------|---------|-------------|-------------|

E|-------------|-------------|-------------|-------------|-------------|
B|---0---0---0-|---0---0---0-|---0---0---0-|---0---0---0-|---0---0---0-|
G|-----0---2---|-----0---2---|-----0---2---|-----0---2---|-----0---2---|
D|-0-----------|-0-----------|-2-----------|-------------|-------------|
A|-------------|-------------|-------------|-3-----------|-3-----------|
E|-------------|-------------|-------------|-------------|-------------|

E|-------------|-------------|
B|---0---0---0-|---0---0---0-|
G|-----0---2---|-----0---2---|
D|-------------|-------------|

Repita 3x esse ponto, para o 1º e 2º verso 2x para o ultimo verso começa pelo 2º

Refrão
"And at once I knew, I was not Magnificant."
E|-------------|-------------|-------------|-------------|
B|---0---0---0-|---0---0---0-|---0---0---0-|---0---0---0-|
G|-----0---2---|-----0---2---|-----0---2---|-----0---2---|
D|-------------|-------------|-------------|-------------|
A|-3-----------|-3-----------|-3-----------|-3-----------|
E|-------------|-------------|-------------|-------------|

E|-------------|-------------|-------------|-------------|-------------|
B|---0---0---0-|---0---0---0-|---0---0---0-|---0---0---0-|---0---0---0-|
G|-----0---2---|-----0---2---|-----0---2---|-----0---2---|-----0---2---|
D|-------------|-------------|-0-----------|-0-----------|-0-----------|
A|-------------|-------------|-------------|-------------|-------------|
E|-0-----------|-0-----------|-------------|-------------|-------------|

"Strayed above the highway aisle"
E|-------------|-------------|-------------|-------------|-------------|
B|---0---0---0-|---0---0---0-|---0---0---0-|---0---0---0-|---0---0---0-|
G|-----0---2---|-----0---2---|-----0---2---|-----0---2---|-----0---2---|
D|-0-----------|-------------|-------------|-------------|-------------|
A|-------------|-3-----------|-3-----------|-3-----------|-3-----------|
E|-------------|-------------|-------------|-------------|-------------|

E|-------------|-------------|-------------|-------------|
B|---0---0---0-|---0---0---0-|---0---0---0-|---0---0---0-|
G|-----0---2---|-----0---2---|-----0---2---|-----0---2---|
D|-2-----------|-0-----------|-0-----------|-0-----------|
A|-------------|-------------|-------------|-------------|
E|-------------|-------------|-------------|-------------|

Jagged vacance, thick with ice
E|-------------|-------------|-------------|-------------|-------------|
B|---0---0---0-|---0---0---0-|---0---0---0-|---0---0---0-|---0---0---0-|
G|-----0---2---|-----0---2---|-----0---2---|-----0---2---|-----0---2---|
D|-------------|-------------|-------------|-0-----------|-0-----------|
A|-3-----------|-------------|-------------|-------------|-------------|
E|-------------|-0-----------|-3-----------|-------------|-------------|

And I could
see for miles, miles, miles
E|-------------|-------------|---------|---------|---------|-------------|-3-
B|---0---0---0-|---0---0---0-|---0---0-|---0---0-|---0---0-|---0---0---0-|-0-
G|-----0---2---|-----0---2---|-----0---|-----0---|-----0---|-----0---2---|-0-
D|-0-----------|-0-----------|---------|---------|---------|-------------|-0-
A|-------------|-------------|-3-------|-2-------|-3-------|-------------|-2-
E|-------------|-------------|---------|---------|---------|-3-----------|-3-


NUEVO FORO DE MÚSICA

¿Tienes alguna duda, consulta, pregunta, consejo o algo para compartir sobre esta canción?

¡Puedes abrir un hilo en el FORO para que la comunidad te ayude! Hacer una pregunta

ACORDES PARA GUITARRA

PIANO UKELELE


Las más tocadas de Bon Iver