Towers

Bon Iver

Acordes

Bon Iver, Bon Iver (2011)
Subida por Carlottaaf


Más Versiones
Ver. 2 Ver. 3 Ver. 4 Ver. 5 Ver. 6

Cambiar Cifrado
Americano Latino

Cambiar Tonalidad
-1 +1

Partir Pantalla Imprimir FAQ

+A
-A


Ver solo la LETRA
        D     Asus4 A/C#  Asus4
For the love, Iʼd fallen on
D Asus4 A/C# Asus4
in the swampy August dawn
D Asus4 A/C# Asus4 E
what a mischief you would bring young darling!
A/C# Asus4 E
when the onus is not all your own
A/C# Asus4 E
when you're up for it before you've grown
A/C# Asus4 A/C#
Wo-oo-ah oh ah oh ah oh

D Asus4 A/C# Asus4
from the faun forever gone
D Asus4 A/C# Asus4
in the towers of your honeycomb
D Asus4 A/C# Asus4 E
I'd a tore your hair out just to climb back darling
A/C# Asus4 E
when you're filling out your only form
A/C# Asus4 E
can you tell that itʼs just ceremon'
A/C# Asus4 A/C#
now you've added up to what you're from
A/C# Asus4 A/C#
Wo-oo-ah oh ah oh ah oh

C Em (RIFF 1)
build your tether rain-out from your fragments
C Em (RIFF 1)
break the sailor's table on your sacrum
C Eb (Riff 2)
fuck the fiercest fables, I'm with Hagen

C Gsus4 G/B C/G
for the love, comes the burning young
C Gsus4 G/B C/G
from the liver, sweating through your tongue
C Gsus4 G/B C/G D
well, youʼre standing on my sternum don't you climb down darling
G/B C D
oh the sermons are the first to rest
G/B C D
smoke on Sundays when youʼre drunk and dressed
G/B C D
out the hollows where the swallow nests
G/B C
Wo-oo-ah oh ah oh ah oh
E|-----------------------------------|
B|-----------------------------------|
G|--------------7/9--4---------------| RIFF 1
D|---2--/5--/7----------7--5--4--2---|
A|-----------------------------------|
E|-----------------------------------|

E|-----------------------------------|
B|-----------------------------------|
G|--------2--5--4--------------------| RIFF 2
D|---2/5-----------------------------|
A|-----------------------------------|
E|-----------------------------------|

NUEVO FORO DE MÚSICA

¿Tienes alguna duda, consulta, pregunta, consejo o algo para compartir sobre esta canción?

¡Puedes abrir un hilo en el FORO para que la comunidad te ayude! Hacer una pregunta

ACORDES PARA GUITARRA

PIANO UKELELE
D
Asus4
A/C#
E
C
Em
Eb
Gsus4
G/B
C/G


Las más tocadas de Bon Iver

D
Asus4
A/C#
E
C
Em
Eb
Gsus4
G/B
C/G