Aint No Rest For The Wicked Acoustic (Acordes)

Cage the Elephant

Subida por Gris

Compartir


Cambiar Cifrado
Americano Latino

Cambiar Tonalidad
-1 +1
Imprimir FAQ

Para cambio de tonalidad, zoom, cambio de cifrado, haz clic en este botón


CONSEJO:

Afina tu guitarra antes de tocar. Prueba nuestro afinador en linea.

+A
-A

Texto

Desplazamiento

Transportador

Color de Fondo

Archivos

TONALIDAD, TAMAÑO, CIFRADO, SCROL.

Nos renovamos: Ahora puedes cambiar TODO haciendo clic en ICONO de la Guitarra () que aparece en la parte inferior de esta página.


LETRA CON ACORDES

G   Bb   C    Bb F

Intro:(Slide)

|--0-3-0-5-0--x-x-x-x-x--0-3-0-5-0---3/5-5-5-5-5---0-3-0-5-0--x-x-x-x-x--0-3-0-x-x-x-0-3-0-0-3-0-|
|--0-3-0-5-0--x-x-x-x-x--0-3-0-5-0---3/5-5-5-5-5---0-3-0-5-0--x-x-x-x-x--0-3-0-x-x-x-0-3-0-0-3-0-|
|--0-3-0-5-0--x-x-x-x-x--0-3-0-5-0---3/5-5-5-5-5---0-3-0-5-0--x-x-x-x-x--0-3-0-x-x-x-0-3-0-0-3-0-|
|--0-3-0-5-0--x-x-x-x-x--0-3-0-5-0---3/5-5-5-5-5---0-3-0-5-0--x-x-x-x-x--0-3-0-x-x-x-0-3-0-0-3-0-|
|------------------------------------------------------------------------------------------------|
|------------------------------------------------------------------------------------------------|

Versos:

|------------------------------------------------------------------------|
|------------------------------------------------------------------------|
|-----------------3-3-x-x-x-x-x-x-5-5-x-x-x-x-x-x-3-3-x-x----------------|
|-5-5-x-x-x-x-x-x-3-3-x-x-x-x-x-x-5-5-x-x-x-x-x-x-3-3-x-x-3-3-x-x--------| 4x
|-5-5-x-x-x-x-x-x-1-1-x-x-x-x-x-x-3-3-x-x-x-x-x-x-1-1-x-x-3-3-x-x--------|
|-3-3-x-x-x-x-x-x-----------------------------------------1-1-x-x--------|
Na 4ª vez, toque isso:
|--------------------------------------------------0-3-0-0-3-0-----------|
|--------------------------------------------------0-3-0-0-3-0-----------|
|-----------------3-3-x-x-x-x-x-x-5-5-x-x-x-x-x-x--0-3-0-0-3-0-----------|
|-5-5-x-x-x-x-x-x-3-3-x-x-x-x-x-x-5-5-x-x-x-x-x-x--0-3-0-0-3-0-----------|
|-5-5-x-x-x-x-x-x-1-1-x-x-x-x-x-x-3-3-x-x-x-x-x-x------------------------|
|-3-3-x-x-x-x-x-x--------------------------------------------------------|


          G
I was walking down the street,
               Bb
When out the corner of my eye
          C                   Bb      F
I saw a pretty little thing approaching me.
                G
She said "I've never seen a man
      Bb
Who looks so all alone,
            C          Bb    F
Could you use a little company?
        G
If you pay the right price
       Bb
Your evening will be nice,
            C                 Bb     F
And you can go and send me on my way."
                 G
I said "You're such a sweet young thing
        Bb
Why you do this to yourself?"
      C               Bb                F
She looked at me and this is what she said

Refrão:(Slide)
|-3/123--3/5-5-5-5-5----------------------------------------------------|
|-3/123--3/5-5-5-5-5----------------------------------------------------|
|-3/123--3/5-5-5-5-5----------------------------------------------------|
|-3/123--3/5-5-5-5-5----------------------------------------------------|
|------------------------------------------------------------------------|
|------------------------------------------------------------------------|
Na ultima vez:
|-3/123/------15----15--------------------------------------------------|
|-3/123/---15-----15---15----------------------------------------------|
|-3/123/----------------------------------------------------------------|
|-3/123/----------------------------------------------------------------|
|------------------------------------------------------------------------|
|------------------------------------------------------------------------|


 G                                 Bb C F
"Oh, there ain't no rest for the wicked,
 G                  Bb C F
Money don't grow on trees.
   G
I got bills to pay,
       Bb C F
I got mouths to feed,
             G                       Bb C F
There ain't nothing in this world for free.
         G
I know I can't slow down,
   Bb C F
I can't hold back,
            G                  Bb C F
Though you know, I wish I could.
          G                      Bb C F
No there ain't no rest for the wicked,
         G                    Bb C F
Until we close our eyes for good"

PS: O Ritmo e acordes continuam iguais até o final da musica!

Solo:
|-------------------------------------------------------------------------|
|-/11~--------------/11~---------------/11~-------------/11~-----/11~-----|
|-----10/12-----10------10/12-------10-----10/12-----10----10/12----10/12-|
|-----------8~------------------8~----------------8~----------------------|
|-------------------------------------------------------------------------|
|-------------------------------------------------------------------------|

Video Clip de Aint No Rest For The Wicked Acoustic


ACORDES PARA GUITARRA

PIANO UKELELE
G
Bb
C
F


TOP 20: Las más tocadas de Cage the Elephant


Acordes

Cerrar
G
Bb
C
F

23.03


441