Soil To The Sun (Acordes)

Cage the Elephant

Subida por jemiabcr

Compartir


Cambiar Cifrado
Americano Latino

Cambiar Tonalidad
-1 +1
Imprimir FAQ

Para cambio de tonalidad, zoom, cambio de cifrado, haz clic en este botón


CONSEJO:

Afina tu guitarra antes de tocar. Prueba nuestro afinador en linea.

+A
-A

Texto

Desplazamiento

Transportador

Color de Fondo

Archivos

TONALIDAD, TAMAÑO, CIFRADO, SCROL.

Nos renovamos: Ahora puedes cambiar TODO haciendo clic en ICONO de la Guitarra () que aparece en la parte inferior de esta página.


LETRA CON ACORDES

(intro)

|---------------------------|                  |--------|
|-10--10--10--10--10--10----|                  |--10---|
|-12b-12b-12b-12b-12r-10-12-|  (4x)            |--10---|
|---------------------------|                  |--------|
|---------------------------|                  |--------|
|---------------------------|                  |--------|
|                           |
|                           |
|---------------------------|
|---------------------------|
|--7--7--7--7--7--7--7--7---|
|--7--7--7--7--7--7--7--7---|
|--5--5--5--5--5--5--5--5---|
|---------------------------|

(verso

|-----------------------------------------------|
|-5~----------5~----------5~--------------------|
|-5~-------7--5~-------7--5~-------7--7-7--5-5--|  (2x)  
|----7-5-7-7-----7-5-7-7-----7-5-7-7--7-7--5-5--|       
|-------------------------------------5-5--3-3--|
|-----------------------------------------------|

|-----------------------------------------------|
|-5~----------5~----------5~--------------------|
|-5~-------7--5~-------7--5~-------7--7-7--5-5--|
|----7-5-7-7-----7-5-7-7-----7-5-7-7--7-7--5-5--|
|-------------------------------------5-5--3-3--|
|-----------------------------------------------|
|                                               |  (2x)
|                                               |
|-----------------------------------------------|
|-5~~~~~~~~~~~~~~~~~~~~~~~~~~~~~~~~~------------|
|-5~~~~~~~~~~~~~~~~~~~~~~~~~~~~~~~~~--7-7--5-5--|
|-------------------------------------7-7--5-5--|
|-------------------------------------5-5--3-3--|
|-----------------------------------------------|

(pré-refrão)
|---------------------------------|
|---------------------------------|
|-2-2-2-2-2-2-2-2-5-5-5-5-7-7-7-7-|  (4x)
|-2-2-2-2-2-2-2-2-5-5-5-5-7-7-7-7-|
|-0-0-0-0-0-0-0-0-3-3-3-3-5-5-5-5-|
|---------------------------------|
|                                 |
|                                 |
|---------------------------------|     |---------------------------------|
|---------------------------------|     |---------------------------------|
|---------------------------------|     |---------------------------------|
|-7-7-7-7-7-7-7-7-101010109-9-9-9-|     |-7-7-7-7-7-7-7-7-1010101012121212|
|---------------------------------|     |---------------------------------|
|-5-5-5-5-5-5-5-5-8-8-8-8-7-7-7-7-|     |-5-5-5-5-5-5-5-5-8-8-8-8-10101010|

(refrão)

|----------------10-10-10-|
|----------------13-13-13-|
|--------------------------|
|-5-7--5-7--5-7------------|
|-5-7--5-7--5-7------------|
|-3-5--3-5--3-5------------|
|                          |  (4x)
|                          |
|--------------------------|
|--------------------------|
|-5-6--5-6--5-6--9--9--9b--|
|-5-7--5-7--5-7--10-10-10b-|
|--------------------------|
|--------------------------|

(solo)
|--------------------------------------------------------------------|
|-15b-15b-15b-15b-15b-15b-15b-15b-15b-15hb-15hb-15hb-15hb-15rb-------|
|--------------------------------------------------------------14----|
|--------------------------------------------------------------------|
|-----------------------------------------------------------------12-|
|--------------------------------------------------------------------|
|
|---------------------------|
|---------------------------|
|-xx66xxxx66xxxx66xx66x66x6-|
|-xx77xxxx77xxxx77xx77x77x7-|
|-xx77xxxx77xxxx77xx77x77x7-|
|-xx55xxxx55xxxx55xx57x55x5-|

|---------------------------------------------------------------|
|-------------------------------------------12b-12b-12b-12b-----|
|-------------------------------------12-14-----------------14-|
|-------12-14b-14b-14b-12-----14p12-----------------------------|
|-12-15-------------------14~------14---------------------------|
|---------------------------------------------------------------|

|--------------------------------|
|----------------------------10--|
|-----7-9-9-9--------7-9-9-10----|
|-7-10--------7--7-10------------|
|--------------------------------|
|--------------------------------|

Video Clip de Soil To The Sun


ACORDES PARA GUITARRA

PIANO UKELELE


TOP 20: Las más tocadas de Cage the Elephant


Acordes

Cerrar

00.03


299