Baby Blue (Acordes)

Cage the Elephant

Subida por Nefta

Compartir


Cambiar Cifrado
Americano Latino

Cambiar Tonalidad
-1 +1
Imprimir FAQ

Para cambio de tonalidad, zoom, cambio de cifrado, haz clic en este botón


CONSEJO:

Afina tu guitarra antes de tocar. Prueba nuestro afinador en linea.

+A
-A

Texto

Desplazamiento

Transportador

Color de Fondo

Archivos

TONALIDAD, TAMAÑO, CIFRADO, SCROL.

Nos renovamos: Ahora puedes cambiar TODO haciendo clic en ICONO de la Guitarra () que aparece en la parte inferior de esta página.


LETRA CON ACORDES

Riff
X2
E|----------------------------------|---------------------------------
B|----------------------------------|---------------------------------
G|----------------------------9--8--|---------------------------------
D|------1---1----1/6-----6----------|------1---1----1/6----9-9-8-8----
A|----2---2---2--2/7---7---7--------|----2---2---2--2/7---------------
E|----------------------------------|---------------------------------

E|----------------------------------|---------------------------------
B|----------------------------------|---------------------------------
G|----------------------------9--8--|---------------------------------
D|------1---1----1/6-----6----------|------1---1----1/6----9-9-8-8----
A|----2---2---2--2/7---7---7--------|----2---2---2--2/7---------------
E|----------------------------------|---------------------------------
    Hole in my heart I couldn't change/I didn't know what was supposed to

E|----------------------------------|---------------------------------
B|----------------------------------|---------------------------------
G|----------------------------9--8--|---------------------------------
D|------1---1----1/6-----6----------|------1---1----1/6----9-9-8-8----
A|----2---2---2--2/7---7---7--------|----2---2---2--2/7---------------
E|----------------------------------|---------------------------------
 Stuck in the fire, turn in the grave/Watching the shadows stretch and taking my face


B               E
I didn't know what was supposed to
B               E
I didn't know what was supposed to
B   E          B
     Now I want to
B   E               B
     Yeah, I want to now

B       E
I don't care to explain
B                     E
Why you running away, why you running away
B       E
To be fair, I should say
B                     E
Why you running away, why you running away

Riff

B            E
Standing alone all for the road
B             E
I didn't know what was supposed to
B            E
Creature is safe here in my veins
B                 E
Watching the shadows stretch and taking my face

B          E
I didn't know what was supposed to
B          E
I didn't know what was supposed to
B   E
    But I don't want to
B   E
    Yeah, I want to now

B        E
I don't care to explain
B                     E
Why you running away, why you running away
B      E
To be fair, I should say
B                     E
Why you running away, why you running away
B           E
Ghosts were killing all the way
B                     E
Why you running away, why you running away
B       E
To be fair, I should say
B
Why you running away, why you running away
E
Keep on ruinning

B                   E               B               E
I've been stuck in line all those dirty rotten times
               B                E
They've got time, time is gonna pass
             B                 E
Hope these burning ears won't last
          B            E                B                  E
Sometimes I'm stuck in lies, all those stinky, twisted times
             B                    E
But I've got time, time is gonna pass
              B                   E
I hope these burning ears won't last

B        E
I don't care to explain
B                     E
Why you running away, why you running away
B       E
To be fair, I should say
B                     E
Why you running away, why you running away
B           E
Ghosts were killing all the way
B                     E
Why you running away, why you running away
B        E
I don't care to explain
B                     E
Why you running away, why you running away
B                     E
Why you running away, keep on running away

Riff

E|----------------------------------|---------------------------------
B|----------------------------------|---------------------------------
G|----------------------------9--8--|---------------------------------
D|------1---1----1/6-----6----------|------1---1----1/6----9-9-8-8----
A|----2---2---2--2/7---7---7--------|----2---2---2--2/7---------------
E|----------------------------------|---------------------------------
  Hole in my heart I couldn't change/I didn't know what was supposed to

Video Clip de Baby Blue


ACORDES PARA GUITARRA

PIANO UKELELE
B
E


TOP 20: Las más tocadas de Cage the Elephant


Acordes

Cerrar
B
E

20.10


161