Back Stabbin Betty (Acordes)

Cage the Elephant

Subida por Lierr98

Compartir


Imprimir FAQ
+A
-A

Texto

Desplazamiento

Transportador

Color de Fondo

Archivos

-A
+A
(riff principal)
G|---------------------------------------|
D|---------------------------------------|
A|-----------------------------3-5-------|
E|-5-5-0-3-5-5-0-3-5-5-0-3-5-5-----------|(20x)

G|-------------------------|
D|-------------------------|
A|-5-5-5-5-5-5-5-5-----3-5-|
E|-----------------3-5-----|

Video Clip de Back Stabbin Betty


ACORDES PARA GUITARRA

PIANO UKELELE


TOP 20: Las más tocadas de Cage the Elephant


Acordes

Cerrar

23.12

x

47