Brown (Acordes)

Cage the Elephant

Subida por Paysa2020

Compartir


Imprimir FAQ
+A
-A

Texto

Desplazamiento

Transportador

Color de Fondo

Archivos

-A
+A
(guitarra 1)

(refrão)                here are the notes play them in accordance to the song
E|-8-----8------6----8-------------------------------------------------------|
B|-8-----8------6----8---------13-18-20-16-x2--------------------------------|
G|-9-----9------7----9-------------------------------------------------------|
D|-10-x3-10-x3--8-x3-10-x3---------------------------------------------------|
A|-10----10-----8----10------------------------------------------------------|
E|-8-----8------6----8-------------------------------------------------------|

(chorus)
E|---------------------------------------------------------------------------|
B|---------------------------------------------------------------------------|
G|---------------------------------------------------------------------------|
D|---------------------------------------------------------------------------|
A|--3-6-x4--8-11-x4--3-6--x4--8--11-x4--3-x6--1-x6---------------------------|
E|---------------------------------------------------------------------------|

(passagem 1)
E|---------------------------------------------------------------------------|
B|---------------------------------------------------------------------------|
G|---------------------------------------------------------------------------|
D|--8-13-10-10-----10-----13-------------------------------------------------|
A|--8-13-10-10-x4--8--x6--13-x6----------------------------------------------|
E|--6-11-8--8------8------11-------------------------------------------------|

                listen to the song he plays this over top of guitar 1s chords
E|---------------------------------------------------------------------------|
B|---------------------------------------------------------------------------|
G|-14-14-14-14h15------------------------------------------------------------|
D|---------------------------------------------------------------------------|
A|---------------------------------------------------------------------------|
E|---------------------------------------------------------------------------|

(passagem 2)                                                end the riff with
E|--------------------------------------------------------------------------|
B|--------------------------------------------------------------------------|
G|-----------------------------------------(2x)-----------------------------|
D|-8--10----13-----8----10----13--8----6---------5--------------------------|
A|-8--10-x2-13--x2-8-x4-10-x2-13--8-x8-6-x8------5--------------------------|
E|-6--8-----11-----6----8-----11--6----4---------3--------------------------|

Video Clip de Brown


ACORDES PARA GUITARRA

PIANO UKELELE


TOP 20: Las más tocadas de Cage the Elephant


Acordes

Cerrar

22.45

x

197