Colegiala (Calibre 38) Acordes



Más Versiones de esta Canción | Ver. 2 |

Cambiar Cifrado: |SOL > G| - |G > SOL|

BAJAR UN TONO BAJAR UN SEMI-TONO SUBIR UN SEMI-TONO SUBIR UN TONO PARTIR PANTALLA EN VERTICAL PARTIR PANTALLA EN VERTICAL ¡Ayuda!
-A
+A
TODO VA CON KINTAS (D5)


intro: C#hD-D-D X2
D5 (Riff)
e=1.|-------------------------------|
B=2.|-------------------------------|
G=3.|-------------------------------|
D=4.|-7--7-7-7-7-7--7--4h5p4--------|
A=5.|-5--5-5-5-5-5-----------7-5----| x2
E=6.|-------------------------------|


E5 A5 D5 G5
|-------------|-----------------------------------------------|
|-------------|-----------------------------------------------|
|-------------|-----------------------------------------------|
|-9-9-9-9-9-9-|---------------------7-7-4h5h7-5---------------|
|-7-7-7-7-7-7-|-7--7-7-7--7-7-7-7-7-5-5---------5--5-5-5-5----|
|-------------|-5--5-5-5--5-5-5-5-5-------------3--3-3-3-3----|


A5 D5
|---------------------|
|---------------------|
|---------------------|
|----------------7----|
|-7--7-7-7--7-7--5----|
|-5--5-5-5--5-5-------|

verso1:
D G* D
te veo salir te observo Oh Oh
G* E
unicamente recorro tu cuerpo Oh Oh
E A
ya no puedo contenerme
D G
dame lo ke necesito
G A D
colegiala ven a mi porfavor

verso 2 (los mismos acordes)


break:
G A D
who ho ho, ho oh-oh-oh
who ho ho, ho oh-oh-oh

coro:

G A D (RIFF)
solamente pienso en vos contigo kiero estar
recorrer tu cuerpo a besos no puedo esperar
G A D Bm A
colegiala ven a mi colegiaaaaaala
G A D
dame un poco de tu amor colegiala


Xx solo 1: xX [D-(riff)-D-(riff)-E-A-D-G-A-D]

|---------------------|---------------------------------------------|
|---------------------|-10p7-----------8-8-8-7-7-7------------------|
|-9b11r-7-7h9p7-9b11--|------9-7-7h9p7-------------9-9-9-7-7-7-9-7--|
|---------------------|---------------------------------------------|
|---------------------|---------------------------------------------|
|---------------------|---------------------------------------------|


|-------|---------------|-----------------------------------|
|-------|-10---10-8-7-8-|-8--8-8-8-8--10--10-10-10-10-10----|
|-6h7-7-|-9-------------|-7--7-7-7-7---9---9--9--9--9--9----|
|-------|---------------|---------------------------------7-|
|-------|---------------|---------------------------------5-|
|-------|---------------|-----------------------------------|

verso3:
D G* D
tengo un juguete ke te gustará Oh Oh
G* E
guardado en mi pantalón Oh Oh
E A
te lo enseñaré en mi cama
D G
si jugamos a papá y mamá
G A D
colegiala ven a mi porfavor

verso 4 (los mismos acordes)


break:
G A D
who ho ho, ho oh-oh-oh
who ho ho, ho oh-oh-oh

coro:

G A D (RIFF)
solamente pienso en vos contigo kiero estar
recorrer tu cuerpo a besos no puedo esperar
G A D Bm A
colegiala ven a mi colegiaaaaaala
G A D
dame un poco de tu amor colegiala


Xx solo 2: xX [D-(riff)-D-(riff)-E-A] X2 luego [D-G-A-D]

|-------------|----------------|
|-7-7-8p7-8p7-|-7-7-8p7-8p7----|
|-7-7---7---7-|-7-7---7---7----|
|-------------|----------------|
|-------------|----------------|
|-------------|----------------|

|-----------------------------|--------|
|-5-7-8-8-8-8-7-7-7-5-5-5-5---|--------|
|---------------------------7-|-6h7----|
|-----------------------------|--------|
|-----------------------------|--------|
|-----------------------------|--------|

|-------------|----------------|
|-7-7-8p7-8p7-|-7-7-8p7-8p7----|
|-7-7---7---7-|-7-7---7---7----|
|-------------|----------------|
|-------------|----------------|
|-------------|----------------|

|-----------------------------|--------|
|-5-7-8-8-8-8-7-7-7-5-5-5-5---|--------|
|---------------------------7-|-6h7----|
|-----------------------------|--------|
|-----------------------------|--------|
|-----------------------------|--------|

|------------|-----------|----------------10-|----|
|---7h8-10-8-|-8-8-8-8-8-|-10-10-10-10-10-10-|----|
|-7----------|-7-7-7-7-7-|--9--9--9--9--9----|----|
|------------|-----------|-------------------|----|
|------------|-----------|-------------------|----|
|------------|-----------|-------------------|----|

break:
G A D
who ho ho, ho oh-oh-oh
who ho ho, ho oh-oh-oh (varias veces hasta ke empieza el outro)

por las buenas noooo por las malas
colegiala ven a mi por favor

outro1: X2

|-----------------|-----------------|-----------------|-----------------|
|-----------------|-----------------|-----------------|-----------------|
|-----------------|-----------------|-----------------|-----------------|
|-----------------|-----------------|-----------------|-----------------|
|-5s7s9s5-5s7s9s5-|-5s7s9s5-5s7s9s5-|-5s7s9s5-5s7s9s5-|-5s7s9s5-5s7s9s5-|
|-----------------|-----------------|-----------------|-----------------|

outro2: (varias veces hasta terminar lento)

|------------------------|------------------|
|------------------------|-------8-7--------|
|-7--9-9--7--9-9--7--9-9-|-7-9-7-----9-7----|
|------------------------|------------------|
|------------------------|------------------|
|------------------------|------------------|


NOTAS:

s= slide (deslizar)
h= hammer on
p= pull off


b= bend ( alar la cuerda hacia arriba para que
suene como el traste ke dice la tab
en este caso el 11, debe usarce el dedo
corazon en este caso )

r= relase (cuando se termine el bend bajar el dedo )
con la cuerda pisada sin dejar ke
se apague el sonido )
G*
|--X--|
|--X--|
|--7--|
|--5--|
|--X--|
|--X--|

listo, es todo, esta muy bien sacada
disfrutenla y sobretodo califiquenla

si tienen dudas mi mail es
blinkfredy@msn.com

suerte.
jhon fredy



¡Siguiente!

Toca una Canción al Azar de Calibre 38
D5
B
D
A
E5
A5
G5
G
E
G
Bm




Aún no hay comentarios, ¡escribe el primero!

Escribe un comentario o pregunta sobre esta canción:




Más canciones de Calibre 38

Solución Suicida
Calibre 38
Nada más de vos
Cansado de perder
La Carta
Cerveza y Rock and Roll
Rabia y dolor
Tu amor es veneno
Sólo en la mesa
Colegiala
Quiero más cerveza
Resurrección
Hora de partir

Siguiente


ABRIR ACORDES

Nuestro servidor se demoró 0.09 segundos en generar esta página. Eso fue realmente muy rápido!