Quiero más cerveza (Calibre 38) Acordes



Cambiar Cifrado: |SOL > G| - |G > SOL|

BAJAR UN TONO BAJAR UN SEMI-TONO SUBIR UN SEMI-TONO SUBIR UN TONO PARTIR PANTALLA EN VERTICAL PARTIR PANTALLA EN VERTICAL ¡Ayuda!
-A
+A
INTRO:
E|-------------------|---------------------X2--|
B|-------------------|-------------------------|
G|-----0-2-0---------|-----0-2-0---------------|
D|---3---------2-0-5-|---3---------2-0-5--32---|
A|-3---------5-------|-3---------5-----------5-|
E|-------------------|-------------------------|

E|-------------------|------------------------|
B|-------------------|------------------------|
G|-----0-2-0---------|--------------------5~~-|
D|---3---------2-0-5-|---5---------5----------|
A|-3---------5-------|-3---3~~--33---5~--2----|
E|-------------------|------------------------|

C5 G5
Un dia cualquiera camino a mi barrio
A5 G5
fumo un cigarrillo para calmar mi adiccion
C5 G5
ando buscando en las calles de medallo
A5
un poco de diversion.

E|-------------------------|
B|-------------------------|
G|-------6-7-8-7-6-7f---5v-|
D|-6-7-8-------------------|
A|-------------------------|
E|-------------------------|

C5 G5
Llego a mi casa y mi mama esta molestando
A5 G5
vago hijueputa ponete a trabajar
C5 G5
pero mis amigos ya me estan esperando
A5 G5
porque en el bar nos vamos a encontrar


C5 G5
Quiero mas cerveza, quiero mas cerveza
A5 C5
hoy yo me quiero emborrachar
A5 G5
mañana no voy a estudiar

E|--------------------------------------------------------------------|
B|--------------------------------------8-8v-87-87-5-7-5p7h5-45-4-2-4-|
G|-5---5--7--7s9-7p9h7-5---5---5--7-7s9-------------------------------|
D|---5-----------------------5----------------------------------------|
A|--------------------------------------------------------------------|
E|--------------------------------------------------------------------|
T
E|---------------------------------------12-8-10-8-12-8-10-8-12-8-10-8-|
B|---------------------------------------------------------------------|
G|---4-5s7-5v--7f-7f-75-7v------5-7-5-4--------------------------------|
D|-5------------------------5-7----------------------------------------|
A|---------------------------------------------------------------------|
E|---------------------------------------------------------------------|

E|-1212121212121212-10-8-|-8-10-8-12-8-10-|-8f--12-13-13s15-13-12-8-|
B|-----------------------|----------------|-------------------------|
G|-----------------------|------------x3--|-------------------------|
D|-----------------------|----------------|-------------------------|
A|-----------------------|----------------|-------------------------|
E|-----------------------|----------------|-------------------------|

E|-8s12--10-8-10--|-10s12-12-10-8-10-|-10-8-7---8-10-8-|
B|----------------|------------------|-----------------|
G|----------------|--------------X2--|-----------------|
D|----------------|------------------|-----------------|
A|----------------|------------------|-----------------|
E|----------------|------------------|-----------------|

ACORDES:
E|-----X-----X-----X-----|
B|-----X-----X-----X-----|
G|-----5-----X-----X-----|
D|-----5-----5-----7-----|
A|-----3-----5-----7-----|
E|-----X-----3-----5-----|
C5 G5 A5



¡Siguiente!

Toca una Canción al Azar de Calibre 38

Inicia Sesión para guardar
esta versión como favorita

DESCARGAS:
Descargar
(Quiero más cerveza .pdf)


Aún no hay comentarios, ¡escribe el primero!

Escribe un comentario o pregunta sobre esta canción:






Más canciones de Calibre 38

Sólo en la mesa
Resurrección
Solución Suicida
Rabia y dolor
Quiero más cerveza
Calibre 38
La Carta
Nada más de vos
Cerveza y Rock and Roll
Tu amor es veneno
Cansado de perder
Hora de partir
Colegiala

Siguiente


ABRIR ACORDES

Nuestro servidor se demoró 0.7 segundos en generar esta página. No esta nada mal!