Canción mixteca (Acordes)

Canciones Populares

Subida por Scott

Compartir


Cambiar Cifrado
Americano Latino

Cambiar Tonalidad
-1 +1
Imprimir FAQ
+A
-A

Texto

Desplazamiento

Transportador

Color de Fondo

Archivos

TONALIDAD, TAMAÑO, CIFRADO, SCROL.

Nos renovamos: Ahora puedes cambiar TODO haciendo clic en ICONO de la Guitarra () que aparece en la parte inferior de esta página.


LETRA CON ACORDES

1--------------------------------------------------

2--1-1-0-1--0--------1-0-----0-0-0-0---------------
3-0----------2-0-0--2------0---------2-2-0--0---2--
4------------------------3-----------------3---3-2-
5--------------------------------------------------
6--------------------------------------------------

1---0-0-0-0----------------------------------------
2------------3-3-1-0-1--0-3------0-3-1-------0-----
3-0--------------------------2---------2-0--0--2-0-
4------------------------------------------2-------
5--------------------------------------------------
6--------------------------------------------------

1--1--0------------3----------------------3-1------
2-3----3-1------0-3-----0-1-0----------0-3---------
3------------0-0--------------2-0---0-0------------
4----------------------------------2---------------
5--------------------------------------------------
6--------------------------------------------------

1----------------0-0-0-0---------------------------
2-0-1-0-0----------------3-3-1-0-1--0-3---0-3-1----
3------2--2-0---0----------------------2-------2-0-
4------------2-------------------------------------
5--------------------------------------------------
6--------------------------------------------------

1---------1--0-3-1---
2---0----3-----------
3--0-2-0-------------
4-2------------------
5--------------------
6--------------------


Video Clip de Canción mixteca


ACORDES PARA GUITARRA

PIANO UKELELE


TOP 20: Las más tocadas de Canciones Populares


Acordes

Cerrar

03.58

x

57