La marcha peronista (Acordes)

Canciones Populares

Subida por mgaleana

Compartir


Cambiar Cifrado
Americano Latino

Cambiar Tonalidad
-1 +1
Imprimir FAQ
+A
-A

Texto

Desplazamiento

Transportador

Color de Fondo

Archivos

TONALIDAD, TAMAÑO, CIFRADO, SCROL.

Nos renovamos: Ahora puedes cambiar TODO haciendo clic en ICONO de la Guitarra () que aparece en la parte inferior de esta página.


LETRA CON ACORDES

Intro :


E------------------------6-7-8-------------------------|
B------------------6-6-9---------6-6-9-11-12-13-11-9-6-|
G---------3-4-5----------------------------------------|
D---3-3-6------------------------3-3-6--8--9-10-8--6-3-|
A------------------------------------------------------|
E------------------------------------------------------|


Esta es la parte cantada del principio :

E---------------------------------------------------------------|
B---5---5---5---5---5---5---5----5---3---3---3---3---7-7-7-8-7-7|
G----6---6---6------6-------6-------------4---4---4-------------|
D-----7---7-----------7-------7------------5---5----------------|
A---------------------------------------------------------------|
E---------------------------------------------------------------|

Estribillo ´ Peron, peron, que grande sos...´

E-------------------------------------------|
B-------------------------------------------|
G--5-5-5-5-3-------------------6--2-3-4-5---|
D------------6-5-6--x2---3-3-3--------------|
A-------------------------------------------|
E-------------------------------------------|


E-------------------------------------------|
B---5--7--8--9--7--5--4--2------------------|
G-------------------------------------------|
D---3--5--6--7--5--3--2--0------------------|
A-------------------------------------------|
E-------------------------------------------|

Cualquier duda, sugerencia lo que quieran, no duden
de mandarme un e-mail


Video Clip de La marcha peronista


ACORDES PARA GUITARRA

PIANO UKELELE


TOP 20: Las más tocadas de Canciones Populares


Acordes

Cerrar

00.21

x

66