La Surianita (Acordes)

Canciones Populares

Subida por ricard026

Compartir


Cambiar Cifrado
Americano Latino

Cambiar Tonalidad
-1 +1
Imprimir FAQ
+A
-A

Texto

Desplazamiento

Transportador

Color de Fondo

Archivos

TONALIDAD, TAMAÑO, CIFRADO, SCROL.

Nos renovamos: Ahora puedes cambiar TODO haciendo clic en ICONO de la Guitarra () que aparece en la parte inferior de esta página.


LETRA CON ACORDES

se repite 3 veces la cancion completa


Em                                          B7
e-0---3-5-7-7-7-7-5-3-2-0--3-5-7-7-7-7-5-3-2
B-0-----------------------------------------
G-0-----------------------------------------
D-2-----------------------------------------
A-2-----------------------------------------
E-0-----------------------------------------

                      Em      B7          Em        x2
e-2-3-5-5-5-5-3-2-5-3---7-8-7-5-3-5-3-2-0
B----------------------------------------
G----------------------------------------
D----------------------------------------
A----------------------------------------
E----------------------------------------

Tremulo solo en la primera cuerda en tres tiempos
con una x

Em          Am    Em          B7                Em
   x x  x  x
e--7-7--8--8-----8-8-8-8-7---7-7-7-7-5-3-5-3-5-7
B-8-8-10-10----10----------8--------------------
G-----------------------------------------------
D-----------------------------------------------
A-----------------------------------------------
E-----------------------------------------------


Em          Am   Em         B7                 Em
   x x  x  x
e--7-7--8--8-----8-8-8-8-7---7-7-7-7-5-3-5-3-2-0
B-8-8-10-10----10----------8-------------------0
G----------------------------------------------0
D----------------------------------------------2
A----------------------------------------------2
E----------------------------------------------0


Video Clip de La Surianita


ACORDES PARA GUITARRA

PIANO UKELELE
Em
B7
Am


TOP 20: Las más tocadas de Canciones Populares


Acordes

Cerrar
Em
B7
Am

19.26

x

96