Remembransas de mi barrio (Acordes)

Canciones Populares

Subida por Kamp

Compartir


Cambiar Cifrado
Americano Latino

Cambiar Tonalidad
-1 +1
Imprimir FAQ
+A
-A

Texto

Desplazamiento

Transportador

Color de Fondo

Archivos

TONALIDAD, TAMAÑO, CIFRADO, SCROL.

Nos renovamos: Ahora puedes cambiar TODO haciendo clic en ICONO de la Guitarra () que aparece en la parte inferior de esta página.


LETRA CON ACORDES

E/-7-7-7-7-7-------8-8-8-8-8--7-5---5-5-5---------5-8-7-5-7-/

b/-----------8-7-5----------------8-------8-7---7-----------/
g/--------------------------------------------7-------------/
d/----------------------------------------------------------/
a/----------------------------------------------------------/
e/----------------------------------------------------------/

E/-7-7-7-7-7-------5-5-5-5-5--5-7-8-7----------7-5---------------/
b/-----------8-7-5--------------------7--7-7-7-----8-7-5-5--5-5-5/
g/---------------------------------------------------------------/
d/---------------------------------------------------------------/
a/---------------------------------------------------------------/
e/---------------------------------------------------------------/

E/-7-7-7-7-7-------8-8-8-8-8--7-5---5-5-5---------5-8-7-5-7-/
b/-----------8-7-5----------------8-------8-7---7-----------/
g/--------------------------------------------7-------------/
d/----------------------------------------------------------/
a/----------------------------------------------------------/
e/----------------------------------------------------------/

E/-7-7-7-7-7-------5-5-5-5-5--5-7-8-7----------7-5---------------/
b/-----------8-7-5--------------------7--7-7-7-----8-7-5-5--5-5-5/
g/---------------------------------------------------------------/
d/---------------------------------------------------------------/
a/---------------------------------------------------------------/
e/---------------------------------------------------------------/

coro:

E/---0-0-3-2-0----0-0-3-2-0----2-2-5-3-2-2-5-7-7-7--5-3-2-/
b/-0------------1------------3---------------------7-5-3--/
g/--------------------------------------------------------/
d/--------------------------------------------------------/
a/--------------------------------------------------------/
e/--------------------------------------------------------/

E/---0-0-3-2-0----0-0-3-2-0----2-2-5-3-2-2-5-7-7-7--5-3-2-/
b/-0------------1------------3---------------------7-5-3--/
g/--------------------------------------------------------/
d/--------------------------------------------------------/
a/--------------------------------------------------------/
e/--------------------------------------------------------/


Video Clip de Remembransas de mi barrio


ACORDES PARA GUITARRA

PIANO UKELELE


TOP 20: Las más tocadas de Canciones Populares


Acordes

Cerrar

13.49

x

67