Apaysanado (Acordes)

César Oliveira e Rogério Melo

Subida por luuciagb


Imprimir FAQ
+A
-A

Texto

Desplazamiento

Transportador

Color de Fondo

Herramientas

TAMAÑO
TONALIDAD
+A
subir tono+ (F4)
-A
bajar tono- (F2)
    
(intro)

(solo)
E|--------------------------------------------------------------------------------------------
B|--------------------------------------------------------------------------------------------
G|-12-9-11---9-----------------------11-7-9----7--------------------9-5-7---5-----------------
D|---------12--10-12-9-10-9-----------------10---9-10-7-9-7---------------9---7-9-5-7-5-------
A|--------------------------12-10-9-------------------------10-9-7----------------------9-7-5-
E|--------------------------------------------------------------------------------------------

E|-----------------------------------------------------
B|-----------------------------------------------------
G|--------5-4-------------7-5-4------------------------
D|------7-----7-5-4---4-5-------7-5--------------------
A|--5-9-------------5----------------------------------
E|-----------------------------------------------------

(intro base) G D7 C Bm7 Am7 D7 G D7 Em D7 G

                   C        Cm           G
Floreio o bico da gansa nesta gateada lobuna
                      C        D7           G
A melhor das minhas alunas na doma tradicional
      Em7            Am7       D7            G
Por favor não leve a mal este meu jeito fronteiro
       C       C#  D7    C   Bm7 Am7        G
Filho de pai brasileiro hijo de madre oriental

(intro)
                   C           Cm            G
Não carrego pretensão mas não sou de me achicar
                     C    D7            G
Decerto trouxe de Allá o gosto pela guitarra
         Em7         Am7        D7            G
Quando a saudade se agarra num bordoneio entonado
       C      C#     D7                            G
É meu povo enforquilhado num bagual mandando garra

                  D7                    G
(Sou assim apaisanado, domador e guitarreiro
                     D7        B7             Em
Diariamente peão campeiro nas folgas campeio festa
  Dm7        G7     C             D7            G
Tapeio o chapéu na testa pra ver melhor, as imagens
      C     C#     D7     C     Bm7    Am7        G
Talento fibra e coragem, não se compra nem se empresta

          B C C# D7                    G
Sou assim apaisanado, domador e guitarreiro
                     D7        B7             Em
Diariamente peão campeiro nas folgas campeio festa
  Dm7        G7     C             D7            G
Tapeio o chapéu na testa pra ver melhor, as imagens
      C     C#     D7                                  G
Talento fibra e coragem, não se compra nem se empresta)

(intro)

?Quem é do garrão da pátria, alma, sangue e procedência
O amor pela querência traz retratado na estampa
Retovos de casco e guampa no repertório da lida
Pra que o sentido da vida finque raízes na pampa?

(intro)
                  C         Cm                  G
No cabo de uma solinge sou mais ligeiro que um gato
                      C       D7             G
No aporreado um carrapato largando só no garrote
  Em7              Am7          D7         G
E macho pra me dar bote não se perca por afoito
       C        C#     D7   C      Bm7 Am7     G
Junte mais uns sete ou oito e me atropelem de lote

(intro)
                C       Cm           G
Numa milonga crioula numa chamarra gaúcha
                       C           D7          G
Pego um grito de a la pucha e me acomodo no embalo
  Em7              Am7         D7              G
Mateio ao canto do galo gosto do assunto bem claro
         C     C#     D7                          G
Se de a pé já não disparo quanto mais bem a cavalo

(intro)

HERRAMIENTAS ACORDESWEB:


LETRA DE LA CANCIÓN:

Ver la letra sola (sin acordes)

OTRAS VERSIONES DE LA MISMA CANCIÓN:

Ver. 2 Ver. 3 Ver. 4 Ver. 5 Ver. 6

DESCARGAR PDF / IMPRIMIR CANCIÓN



ACORDES PARA

g
G
d7
D7
c
C
bm7
Bm7
am7
Am7
em
Em
cm
Cm
em7
Em7
c
C#
b7
B7
dm7
Dm7
g7
G7
b
B


TOP 20: Las más tocadas de César Oliveira e Rogério Melo