Accidentally In Love
Counting Crows
Acordes

Subida por Morningstar905


Más Versiones
Ver. 2 Ver. 3

HERRAMIENTAS

Cambiar Cifrado
Americano Latino

Cambiar Tonalidad
-1 +1

Partir Pantalla Imprimir FAQ

Ver solo la LETRA

+A
-A

LETRA CON ACORDES

¿Tu Guitarra esta Afinada? PRUEBA NUESTRO NUEVO AFINADOR

Intro:
E|-----------------------------------------------------------|
B|--9/11/9-9/7-7/9--9/11/9-9/7-7/9--9/11/9-9/7-7/9/11/9/7-7--|
G|--x/x-/x-x/x-x/x--x/x/-x-x/x-x/x--x/x/-x-x/x-x/x/x-/x/x-x--|
D|--7/9-/7-7/5-5/7--7/9/-7-7/5-5/7--7/9/-7-7/5-5/7/9-/7/5-5--|
A|-----------------------------------------------------------|
E|-----------------------------------------------------------|

Solo da intro
E|------------------------------------------------------------------------------------------|
B|-0----------------0---------------0----------------0-----------------------------------|
G|----2-2---0-0-2----2-2-0-0-2---2-2-0-0-2-2----2--0-0------------------------|
D|-------------------------------------------------------------------------------------------|
A|-------------------------------------------------------------------------------------------|
E|-------------------------------------------------------------------------------------------|

E|-----------------------------------------------------------------------------------|
B|-0----------------0---------------0----------------------------------------------|
G|----2-2---0-0-2----2-2-0-0-2---2-2-0-0-2-2--0-0-----------------5-------------|
D|--------------------------------------------------------------2-2-----------5-------------|
A|--------------------------------------------------------------------4-4-0--3-------------|
E|------------------------------------------------------------------------------------|

( G C G D G C Em A C )

G C
So she said what's the problem baby
G C Em
What's the problem I don't know well maybe I'm in love (love)
A
Think about it every time I think about it
C
Can't stop thinking 'bout it

G C
How much longer will it take to cure this
G C Em
Just to cure it cause I can't ignore it if it's love (love)
A
Makes me wanna turn around and face me
D C
But I don't know nothing 'bout love
(G) (A) C D
Come on, come on, turn a little faster
(G) (A) C D
Come on, come on, the world will follow after
(G) (A) C D Em A C
Come on, come on, cause everybody's after lo...ve

G C
So I said I'm a snowball running
G C Em
Running down into the spring that's coming all this love
A
Melting under blue skies
C G
Belting out sunlight shimmering love

C G
Well baby I surrender to the strawberry ice cream
C Em
Never ever end of all this love
A
Well I didn't mean to do it
D C
But there's no escaping your love

Em C
These lines of lighting
G Am C
Mean we're never alone, never alone, no, no

(G) (A) C D
Come on, come on, move a little closer
(G) (A) C D
Come on, come on, I want to hear you whisper
(G) (A) C D Em A
Come on, come on, settle down inside my lo...ve

(G) (A) C D
Come on, come on, jump a little higher
(G) (A) C D
Come on, come on, if you feel a little lighter
(G) (A) C D Em A C
Come on, come on, we were once upon a time in lo...ve

G C
We're accidentally in love
Em D
Accidentally in love

G C
We're accidentally in love
Em D
Accidentally in love

( G C G D G C Em A C )
(esta é a mesma sequencia da intro - pode usar o riff)

G C
I'm In Love, I'm in Love,
Em
I'm in Love, I'm in Love,
D
I'm in Love, I'm in Love,

(G) (A) C D
Come on, come on, spin a little tighter
(G) (A) C D
Come on, come on, and the world's a little brighter
(G) (A) C D Em D G
Come on, come on, just get yourself inside her love... I'm in love////////////////// ¿Te Animas? Sube una canción a este sitio. //////////////////

ACORDES PARA GUITARRA

PIANO UKELELE
G
C
D
Em
A
Am


COMENTARIOS

Aún no hay comentarios,

¡escribe el primero!

Escribe una pregunta, duda o comentario sobre esta canción, te responderemos a la brevedad.

Las canciones más tocadas de Counting Crows

Toca una Canción al Azar de Counting Crows
G
C
D
Em
A
Am

09.02


Nuestro servidor se demoró 0.08 segundos en generar esta página. Eso fue realmente muy rápido!