Hanginaround
Counting Crows
Acordes

Subida por matystratt85
Álbum: This Desert Life ( 1999)


Más Versiones
Ver. 2

Cambiar Cifrado
Americano Latino

Cambiar Tonalidad
-1 +1

Partir Pantalla Imprimir FAQ

+A
-A


Ver solo la LETRA
The solo needs work but everything in the solo up to the asterisk is the correct notes

Intro:
e|---------------------------------------------------------|
B|---------------------------------------------------------|
G|---------------------------------------------------------|
D|---------------------------------------------------------|
A|---0--3--5h7--5--3--2--3--2----0--3--5h7-5-3h5p3--3h5p3-3|
E|1------3---------------------1-----3---------------------|(x2)

F C G
She sat right down on the sofa
F
And says where have you been
C G
I've been waiting for you
F C G
And last night I had something so good
F C G
These days get so long and I've got nothing to do

F C G
Ive been hanging around this town on a corner
F C G
Ive been bummin around this old town so long
F C G
Ive been hanging around this town on a corner
F C G
Ive been bummin around this old town for way too long

F C G
We spent all day getting sober
F
Just hiding from daylight
C G
And watching tv (...fading away)
F C G
We just look a lot better in the blue light
F
Well you know I gotta get out
C
But Im stuck so tight
G
Weighed by the chains that keep me

F C G
, hanging around this town on a corner
F C G
I've been bummin around this old town so long
F C G
I've been hanging around this town on a corner
F C G
I've been bummin around this old town for way too long

Solo:
e|-------------------------------------------------------------------------|
B|-------------------------------------------------------------------------|
G|-------------------------------------------------------------------------|
D|-------------------------------------------------------------------------|
A|---0--3---5h7--5--3--2--3--2----0--3---5h7---5p3h5---5---5p3h5--5---7h10-|
E|1------3---------------------1------3------------------------------------|

e|------------------------------------------------------------------------|
B|------------------------------------------------------------------------|
G|------------------------------------------------------------------------|
D|------------------------------------------------------------------------|
A|---0--3---5-7--5p3h5--7-7--7-7-7h9-10-10/15-15-15-13--15-15-15-13-12-15-|
E|1------3----------------------------------------------------------------|
*
F C G
This girl listens to band plays

She says where have you been
F C G
Been laying right here on the floor
F C G
I got all this time to be waiting for what is mine
F C G
To be hated for what I am after the light has faded

F C G
Ive been hanging around this town on a corner
F C G
Ive been bummin around this old town so long
F C G
Ive been hanging around this town on a corner
F C G
Ive been bummin around this old town for way too long, hey

F C G
Ive been hanging around this town on a corner
F C G
Ive been bummin around this old town for way too long
F C G
Ive been hanging around this town on a corner
F C G F C
I've been bummin around this old town for way, way, way, way, too long

G F C
way, way, way, way, too long
G F C
way, way, way, way, too long
G F C
way, way, way, way, too long
G F C
way, way, way, way, too long
G F C
way, way, way, way, too long
G F C
way, way, way, way, too long

/ = Slide
h = hammer on
p = pull off

ACORDES PARA GUITARRA

PIANO UKELELE


COMENTARIOS

Aún no hay comentarios,

¡escribe el primero!

Escribe una pregunta, duda o comentario sobre esta canción, te responderemos a la brevedad.

Las más tocadas de Counting Crows

Toca una Canción al Azar de Counting Crows