Compartir


Imprimir FAQ
+A
-A

Texto

Desplazamiento

Transportador

Color de Fondo

Archivos

-A
+A
Introdução
E|-----------------------------------------------------------0-------------------------------2--------|
B|-0-/0-0-0-------------------2---0-/0-4-4-4-----------------3---0-/0-4-4-4------------------3--------|
G|-2-/4-4-4-p0----------------0---2-/4-0-0-0-p0--------------0---2-/4-0-0-0--p0--------------2--------|
D|-----------------0-h2-h4----0-------------------0-h2-h4----4--------------------0-h2-h4----0--------|
A|---------------3------------0-----------------3------------0------------------3------------0--------|
E|----------------------------3------------------------------3-------------------------------3--------|

Verso
E|-0-------------3---------|
B|-2----2---2----3---------|
G|-0h2--0h2-0h2--0---------|
D|-0----0---0----0---------|
A|-2----2---2----0---------|
E|---------------3---------|

Refrão
E|---------0-------------3-|
B|-7-5-2---2----2---2----3-|
G|-0-0-0---0h2--0h2-0h2--0-|
D|-0-0-0---0----0---0----0-|
A|-9-7-4---2----2---2----0-|
E|-----------------------3-|

Cath, she stands with a well-intentioned man
But she can't relax with his hand on the small of her back
And as the flashbulbs burst
She holds a smile like someone would hold a crying child

And soon everybody will ask what became of you
'Cause your heart was dying fast, and you didn't know what to do

Cath, it seems that you live in someone else's dream
In a hand-me-down wedding dress
Where the things that could have been are repressed
But you said your vows, and you closed the door
On so many men who would have loved you more

And soon everybody will ask what became of you
'Cause your heart was dying fast, and you didn't know what to do

The whispers that it won't last roll up and down the pews
But if their hearts were dying that fast,
They'd have done the same as you
And I'd have done the same as you

HERRAMIENTAS ACORDESWEB:


LETRA DE LA CANCIÓN:

Ver la letra sola (sin acordes)

OTRAS VERSIONES DE LA MISMA CANCIÓN:

Ver. 2 Ver. 3 Ver. 4

DESCARGAR PDF / IMPRIMIR CANCIÓN



ACORDES PARA GUITARRA

PIANO UKELELE


TOP 20: Las más tocadas de Death Cab For Cutie


Acordes

Cerrar

11.58


250