Compartir


Imprimir FAQ
+A
-A

Texto

Desplazamiento

Transportador

Color de Fondo

Archivos

-A
+A
Just a slight improvement on radiofights.

This can be played with a capo on third which makes it a lot easier, but for those 
capos.. enjoy. n_n

Intro/Verse
E|----2---------------------------------|
B|--------3-----------------3-----3-----| x6
G|------------4---------------------4---|
D|------------------------2-----2-------|
A|--------------------------------------|
E|3-------------------------------------|

Verse part 2
E|--------------------------------|
B|--------------------------------| x2
G|7-7-7-7-7-7-7-7-4-4-4-4-4-4-4-4-|
D|--------------------------------|
A|5-5-5-5-5-5-5-5-2-2-2-2-2-2-2-2-|
E|--------------------------------|

Intro/Verse
E|----2---------------------------------|
B|--------3-----------------3-----3-----| x2
G|------------4---------------------4---|
D|------------------------2-----2-------|
A|--------------------------------------|
E|3-------------------------------------|

E|--------------------------------|
B|--------------------------------| x2
G|7-7-7-7-7-7-7-7-4-4-4-4-4-4-4-4-|
D|--------------------------------|
A|5-5-5-5-5-5-5-5-2-2-2-2-2-2-2-2-|
E|--------------------------------|

Chorus:
To be a remain, remain, remain, remainder
E|----------------------------------|
B|----------------------------------| x2
G|7777777777777777----------77--44-4|
D|7777777777777777--44--55--77--44-4|
A|5555555555555555--44--55--55--22-2|
E|------------------22--33----------|

Intro/Verse
E|----2---------------------------------|
B|--------3-----------------3-----3-----| x4
G|------------4---------------------4---|
D|------------------------2-----2-------|
A|--------------------------------------|
E|3-------------------------------------|

E|--------------------------------|
B|--------------------------------| x2
G|7-7-7-7-7-7-7-7-4-4-4-4-4-4-4-4-|
D|--------------------------------|
A|5-5-5-5-5-5-5-5-2-2-2-2-2-2-2-2-|
E|--------------------------------|

Intro/Verse
E|----2---------------------------------|
B|--------3-----------------3-----3-----| x2
G|------------4---------------------4---|
D|------------------------2-----2-------|
A|--------------------------------------|
E|3-------------------------------------|

E|--------------------------------|
B|--------------------------------| x2
G|7-7-7-7-7-7-7-7-4-4-4-4-4-4-4-4-|
D|--------------------------------|
A|5-5-5-5-5-5-5-5-2-2-2-2-2-2-2-2-|
E|--------------------------------|

Chorus:
Without a remain, remain, remain, remainder
E|----------------------------------|
B|----------------------------------| x2
G|--------------------------77--44-4|
D|5555555555555555--44--55--77--44-4|
A|5555555555555555--44--55--55--22-2|
E|3333333333333333--22--33----------|

E|----------------------------------|
B|----------------------------------| x1
G|9999999999999999----------77--44-4|
D|9999999999999999--44--55--77--44-4|
A|7777777777777777--44--55--55--22-2|
E|------------------22--33----------|

E|----------------------------------|
B|----------------------------------| x1
G|--------------------------77--44-4|
D|5555555555555555--44--55--77--44-4|
A|5555555555555555--44--55--55--22-2|
E|3333333333333333--22--33----------|

Bridge
E|------------------------|
B|------------------------| Fast Strumming
G|12-12-12-12-12-12-12-12-|
D|------------------------|
A|10-10-10-10-10-10-10-10-|
E|------------------------|

E|------------------------| x3
B|12-12-12-12-12-12-10-10-| Fast Strumming
G|------------------------|
D|------------------------|
A|10-10-10-10-10-10--9--9-|
E|------------------------|

E|--------------------------------|
B|--------------------------------| x2
G|7-7-7-7-7-7-7-7-4-4-4-4-4-4-4-4-|
D|--------------------------------|
A|5-5-5-5-5-5-5-5-2-2-2-2-2-2-2-2-|
E|--------------------------------|

Chorus/Outro:
To be a remain, remain, remain, remainder
E|----------------------------------|
B|----------------------------------| x2
G|7777777777777777----------77--44-4|
D|7777777777777777--44--55--77--44-4|
A|5555555555555555--44--55--55--22-2|
E|------------------22--33----------|

E|----------------------------------|
B|----------------------------------| x1
G|9999999999999999----------77--44-4|
D|9999999999999999--44--55--77--44-4|
A|7777777777777777--44--55--55--22-2|
E|------------------22--33----------|

E|----------------------------------|
B|----------------------------------| x1
G|--------------------------77--44-4|
D|5555555555555555--44--55--77--44-4|
A|5555555555555555--44--55--55--22-2|
E|3333333333333333--22--33----------|

E|----------------|
B|----------------| x3
G|--------77--44-4|
D|44--55--77--44-4|
A|44--55--55--22-2|
E|22--33----------|

That's the whole song in order. My first tab guys, is this awesome?

HERRAMIENTAS ACORDESWEB:


LETRA DE LA CANCIÓN:

Ver la letra sola (sin acordes)

DESCARGAR PDF / IMPRIMIR CANCIÓN



ACORDES PARA GUITARRA

PIANO UKELELE


TOP 20: Las más tocadas de Death Cab For Cutie


Acordes

Cerrar

10.20


147