The Ice Is Getting Thinner (Acordes)

Death Cab For Cutie

Full Álbum: Narrow Stairs (2008)
Subida por sportuondo

Compartir


Imprimir FAQ
+A
-A

Texto

Desplazamiento

Transportador

Color de Fondo

Archivos

-A
+A
 Clean electric guitar
 Standar Tuning [EADGBe] 

   Am                F        C        Am       G        F        C
|-----------------------------------------------------------------------------------|
|-----------------------------------------------------------------------------------|
|-----2--------------0--2--0--------------2--------------0--2--0--5-----------------|
|--2-----2--4-----------------2--------2-----2--0-----------------------------------|
|--0--------------------------3--------0--------------------------3-----------------|
|--------------------1--------------------------3--------1--------------------------|
   1  2  3  1  2  3  1  2  3  1  2  3  1  2  3  1  2  3  1  2  3  1  2  3  1  2  3

   Am                F        C        Am       G        F        D
|--------------------------------------------------------------------------|
|--------------------------------------------------------------------------|
|-----2--------------0--2--0--------------2--------------0--2--0--7--------|
|--2-----2--4-----------------2--------2-----2--0--------------------------|
|--0--------------------------3--------0--------------------------5--------|
|--------------------1--------------------------3--------1-----------------|
   1  2  3  1  2  3  1  2  3  1  2  3  1  2  3  1  2  3  1  2  3  1  2  3

   Am                F        C        Am       G        F        C
|-----------------------------------------------------------------------------------|
|-----------------------------------------------------------------------------------|
|-----2--------------0--2--0--------------2--------------0--2--0--5-----------------|
|--2-----2--4-----------------2--------2-----2--0-----------------------------------|
|--0--------------------------3--------0--------------------------3-----------------|
|--------------------1--------------------------3--------1--------------------------|
   1  2  3  1  2  3  1  2  3  1  2  3  1  2  3  1  2  3  1  2  3  1  2  3  1  2  3
 [Arpeggio of chords starts]
   Am                F        C        Am       G        F        D
|--------------------------------------------------------------------------|
|--------------------------------------------------------------------------|
|-----2--------------0--2--0--------------2--------------0--2--0--7--------|
|--2-----2--4-----------------2--------2-----2--0--------------------------|
|--0--------------------------3--------0--------------------------5--------|
|--------------------1--------------------------3--------1-----------------|
   1  2  3  1  2  3  1  2  3  1  2  3  1  2  3  1  2  3  1  2  3  1  2  3

   Am                F        C        Am       G        F        C
|-----------------------------------------------------------------------------------|
|-----------------------------------------------------------------------------------|
|-----2--------------0--2--0--5-----------2--------------0--2--0--5-----------------|
|--2-----2--4--------------------------2-----2--0-----------------------------------|
|--0--------------------------3--------0--------------------------3-----------------|
|--------------------1--------------------------3--------1--------------------------|
   1  2  3  1  2  3  1  2  3  1  2  3  1  2  3  1  2  3  1  2  3  1  2  3  1  2  3

   F        C        F        A        Dsus2    G        C        F        G
|--------------------------------------------------------------------------------------------|
|--------1--------1--------1--------2--3-----3--0-----0--0-----1--------1-----------3--------|
|-----0--------0--------0--------2--------2--------0-----------------0-----0-----------------|
|--3--------2--------3--------2--------0--------------------------3--------------------------|
|-----------3-----------------0--------------------------3-----------------------------------|
|--1-----------------1--------------------------3-----------------1--------3-----------------|
   1  2  3  1  2  3  1  2  3  1  2  3  1  2  3  1  2  3  1  2  3  1  2  3  1  2  3  1  2  3
 [Solo starts]
   Am                F        C        Am       G        F        D
|--------------------------------------------------------------------------|
|--------------------------------------------------------------------------|
|-----2--------------0--2--0--------------2--------------0--2--0--7--------|
|--2-----2--4-----------------2--------2-----2--0--------------------------|
|--0--------------------------3--------0--------------------------5--------|
|--------------------1--------------------------3--------1-----------------|
   1  2  3  1  2  3  1  2  3  1  2  3  1  2  3  1  2  3  1  2  3  1  2  3

   Am                F        C        Am       G        F        C
|-----------------------------------------------------------------------------------|
|-----------------------------------------------------------------------------------|
|-----2--------------0--2--0--5-----------2--------------0--2--0--5-----------------|
|--2-----2--4--------------------------2-----2--0-----------------------------------|
|--0--------------------------3--------0--------------------------3-----------------|
|--------------------1--------------------------3--------1--------------------------|
   1  2  3  1  2  3  1  2  3  1  2  3  1  2  3  1  2  3  1  2  3  1  2  3  1  2  3
 [Solo ends]
   Am                F        C        Am       G        F        D
|--------------------------------------------------------------------------|
|--------------------------------------------------------------------------|
|-----2--------------0--2--0--------------2--------------0--2--0--7--------|
|--2-----2--4-----------------2--------2-----2--0--------------------------|
|--0--------------------------3--------0--------------------------5--------|
|--------------------1--------------------------3--------1-----------------|
   1  2  3  1  2  3  1  2  3  1  2  3  1  2  3  1  2  3  1  2  3  1  2  3

   Am                F        C        Am       G        F        C
|--------------------------------------------------------------------------|
|--------------------------------------------------------------------------|
|-----2--------------0--2--0--5-----------2--------------0--2--0--5--------|
|--2-----2--4--------------------------2-----2--0--------------------------|
|--0--------------------------3--------0--------------------------3--------|
|--------------------1--------------------------3--------1-----------------|
   1  2  3  1  2  3  1  2  3  1  2  3  1  2  3  1  2  3  1  2  3  1  2  3

   Am                F        C
|--------------------------------------|
|--------------------------------------|
|-----2--------------0--2--0--5--------|
|--2-----2--0--------------------------|
|--0--------------------------3--------|
|-----------3--------1-----------------|
   1  2  3  1  2  3  1  2  3  1  2  3

 [Solo]

|--------------------------------------------------------------------------|
|10/13-15-17-15-------10----13-8------3/5--8--5--3------8/10------/15------|
|--------------------------------------------------------------------------|
|--------------------------------------------------------------------------|
|--------------------------------------------------------------------------|
|--------------------------------------------------------------------------|
    1  2  3  1  2  3  1  2  3  1  2  3  1  2  3  1  2  3  1  2  3  1  2  3

|------------15----15b17----15-------------------------------------------------|
|10/13-15-17-------------------17-15b18r17----1715-----8/10----10/13----13/17-|
|------------------------------------------------------------------------------|
|------------------------------------------------------------------------------|
|------------------------------------------------------------------------------|
|------------------------------------------------------------------------------|
    1  2  3  1  2  3  1  2  3  1  2  3  1  2  3  1  2  3  1  2  3  1  2  3  1

HERRAMIENTAS ACORDESWEB:


LETRA DE LA CANCIÓN:

Ver la letra sola (sin acordes)

OTRAS VERSIONES DE LA MISMA CANCIÓN:

Ver. 2

DESCARGAR PDF / IMPRIMIR CANCIÓN



ACORDES PARA GUITARRA

PIANO UKELELE
Am
F
C
G
D
A
Dsus2


TOP 20: Las más tocadas de Death Cab For Cutie


Acordes

Cerrar
Am
F
C
G
D
A
Dsus2

11.10


185