Ei Peraê!

Detonautas

Acordes

Subida por Irjaa


Más Versiones
Ver. 2 Ver. 3 Ver. 4 Ver. 5 Ver. 6

Cambiar Cifrado
Americano Latino

Cambiar Tonalidad
-1 +1

Partir Pantalla Imprimir FAQ

+A
-A
Mudar para Português

Ver solo la LETRA
INTRO:
e|------------------------------|
B|------------------------------|
G|------------------------------|
D|------------------------------|
A|-12/0-------------------------|
E|------------------------------|

-Riff 1
e|--------------------------------|
B|--------------------------------|
G|--------------------------------|
D|--------------------------------|
A|---7-6H5------------------------|
E|-0-------6-7--5-3-3-0-----------|

-Riff 2-- esse riff se usa nos versos iniciais, logo depois do riff 1.

e|------------------------------------------------|
B|------------------------------------------------|
G|------------------------------------------------|
D|-------------------------------------------5----|
A|---7-6H5------------------7-6H5-----------------|
E|-0-------6-7--5-3-3-0------------6-7--5---------|

e|------------------------------------------------|
B|------------------------------------------------|
G|------------------------------------------------|
D|------------------------------------------------|
A|---7-6H5-------------------7-6H5----------------|
E|-0--------6-7--5-3-3-0------------6-7-0-3-------|

-Riff 1
Tão dizendo por ai que eu ando muito estressado
Minha vida mudou me perdi tô bolado
Tenho que manter a mente o tempo todo alerta
Mas eu não tô conseguindo fazer a coisa certa

-RIFF 2

Não...

(refrão)

C5 D5 E5 E5
Vá ver o sol, Vá ver o mar...Ei..Ei Peraê peraê...peraê peraê

C5 D5 E5 E5
Evaporar toda essa dor...Ei..Ei Peraê peraê...peraê peraê

-RIFF 3--mesma coisa que o riff 2, só que são duas veses:
e|------------------------------------------------|
B|------------------------------------------------|
G|------------------------------------------------|
D|-------------------------------------------5----|
A|---7-6H5------------------7-6H5-----------------|
E|-0-------6-7--5-3-3-0------------6-7--5---------|
2X
e|------------------------------------------------|
B|------------------------------------------------|
G|------------------------------------------------|
D|------------------------------------------------|
A|---7-6H5-------------------7-6H5----------------|
E|-0--------6-7--5-3-3-0------------6-7-0-3-------|

E com 5 minutos de conversa eu já estou discutindo
Porque odeio pensar que os outros estão achando que eu tô mentindo
E quando eu falo alto e alguém pede pra baixar o tom
Eu sei que estou errado mas nem sempre consigo ser bom
Eu tô pensando seriamente em procurar um psiquiatra
Já estão quase me convencendo de que estou ficando louco
Mas eu não posso ficar quieto quando me chamam de babaca
Eu preciso me livrar desse sufoco

Refrão ( idem refrão 1 )

Solo (Rafael D. Algauer):
E|-----------------------------------------------------------|
B|-15^-15^--15-13-12-13-12~~--------13p12--------------------|
G|----------------------------12h14-------14-12----12--------|
D|----------------------------------------------14----14-14~-|
A|-----------------------------------------------------------|
E|-----------------------------------------------------------|

E|--------------------------------------15-17^-17^-17-15-14--|
B|----------------------------------/17----------------------|
G|-----------------------------------------------------------|
D|-14p12-----------------------------------------------------|
A|-------14-13-12--------------------------------------------|
E|----------------14-10/12-10/12~~~--------------------------|

E|-15-14~--------15---------------------15-------------------|
B|--------15-17^----15-17~--------15-17----17-15-17~---------|
G|--------------------------16-17----------------------------|
D|-----------------------------------------------------------|
A|-----------------------------------------------------------|
E|-----------------------------------------------------------|

E|-----------------------------------------------------------|
B|-12-12-12-13-12-13-15-12-12--------------------------------|
G|-11-11-11-12-11-11-14-11-11-(4x)---------------------------|
D|-9--9--9--10-9--10-12-10-9---------------------------------|
A|-----------------------------------------------------------|
E|-----------------------------------------------------------|

E|-----15-17^-17^-17-15-17-17~~--22-22-22^-22^-22^-22^r------|
B|-/17-------------------------------------------------------|
G|-----------------------------------------------------------|
D|-----------------------------------------------------------|
A|-----------------------------------------------------------|
E|-----------------------------------------------------------|

-RIFF 3

E sai da frente que atrás vem gente eu tô impaciente e seja como for
Já não me importo mais com porra nenhuma porque eu tô sem grana
E minha mulher me abandonou
E melhor vc tomar cuidado porque eu ando armado e estou descontrolado
E não me vem com este papo de calma porque este é meu trauma eu já vendi
A alma

Esta passagem ele usa um pedalzinho de Flanger.. entre o "C" com o "D"!!

Refrão ( idem refrão 1 )

-RIFF 1

Se você não está preparado para aprender com a derrota
Com tudo a seu favor você se encontra perdido
É melhor repensar a vida meu camarada
Caso contrário vai continuar fudido

ACORDES PARA GUITARRA

PIANO UKELELE
C5
D5
E5


Las más tocadas de Detonautas

C5
D5
E5