Tô Aprendendo a Viver Sem Você

Detonautas

Acordes

Subida por JAVIERBATISTA


Más Versiones
Ver. 2 Ver. 3 Ver. 4 Ver. 5 Ver. 6

Cambiar Cifrado
Americano Latino

Cambiar Tonalidad
-1 +1

Partir Pantalla Imprimir FAQ

+A
-A
Mudar para Português

Ver solo la LETRA
[Intro]  E

E|-------4----5-4-------------|
B|-----5----------5-----------|
G|---4--------------4---------|
D|----------------------------|
A|----------------------------|
E|-0--------------------------|

E
Venha pra perto de mim
D
E veja como eu estou só
E
Senta nao olha pro chão
D C#m A9
A culpa não foi de ninguém, não, não

F#m A9 E
Ah, tô aprendendo a viver sem você

E D
Sei que o dia raiou para mim
C#m E
Mas pra você tanto fez
D
Sei que não vou mudar, sou assim
C#m A9
Para você sou mais um

F#m A9 E
Ah, tô aprendendo a viver sem você
F#m A9 C#m
Ah, tô aprendendo e não quero aprender

(C#m A B)
(C#m A B)

C#m A9 B C#m
Tô voltando pro meu recanto
A B C#m
Lá é bem melhor
A9 B C#m
Não, não sei quem vai estar me esperando
A B E
Eu nunca vou estar só

F#m A9 E
Ah, tô aprendendo a viver sem você
F#m A9 C#m
Ah, tô aprendendo e não quero aprender
F#m A9 E
Ah, tô aprendendo a viver sem você

( F#m A E )

E|-------------4--7---5-4---------7--4--7--4---|
B|----------5-----------------7--------------7-|
G|-------4-------------------------------------|
D|---------------------------------------------|
A|---------------------------------------------|
E|---------------------------------------------|

NUEVO FORO DE MÚSICA

¿Tienes alguna duda, consulta, pregunta, consejo o algo para compartir sobre esta canción?

¡Puedes abrir un hilo en el FORO para que la comunidad te ayude! Hacer una pregunta

ACORDES PARA GUITARRA

PIANO UKELELE
E
D
C#m
A9
F#m
A
B


Las más tocadas de Detonautas

E
D
C#m
A9
F#m
A
B