O Dia Que Não Terminou

Detonautas

Acordes

Subida por dany1964


Más Versiones
Ver. 2 Ver. 3 Ver. 4 Ver. 5 Ver. 6

Cambiar Cifrado
Americano Latino

Cambiar Tonalidad
-1 +1

Partir Pantalla Imprimir FAQ

+A
-A
Mudar para Português

Ver solo la LETRA
[Intro] Am  F7M/C  G6
Am F7M/C G6

E|---------------------------------------------------|
B|------108~----------------------------------------|
G|-7/9~-------95-2/7~-7p0--------------------------|
D|---------------------------------------------------|
A|---------------------------------------------------|
E|---------------------------------------------------|

E|---------------------------------------------------|
B|------108~----------------------------------------|
G|-7/9~-------95-2/7~-7p0--------------------------|
D|---------------------------------------------------|
A|---------------------------------------------------|
E|---------------------------------------------------|

[Primeira Parte]

Am F7M/C
Me sinto tão estranho aqui
G6
Que mal posso me mexer irmão
Am F7M/C
No meio dessa confusão
G6
Não consigo encontrar ninguém
Am F7M/C G6
Onde foi que você se meteu então?
F7M/C
Tô tentando te encontrar
Am
Tô tentando me entender
G6
As coisas são assim

[Violão 2]

Am9/E
E|-0-------------------------------------------------|
B|-5----------1---------3-------3--------------------|
G|-5------0---------0-------0------------------------|
D|-7----3---3---3/5---5---5---5----------------------|
A|-7-------------------------------------------------|
E|---------------------------------------------------|
G
E|-------------------3-------------------------------|
B|-------1-------1---3-------------------------------|
G|---0-------0-------0-------------------------------|
D|-3---3---2---2-----0-------------------------------|
A|-------------------2-------------------------------|
E|-------------------3-------------------------------|

[Refrão]

Am F7M/C G
Meus olhos grandes de medo revelam a solução
Am F7M/C G
Meu coração tem segredos que movem a solidão
A solidão

( Am F7M/C G6 )

[Violão 2]

E|---------------------------------------------------|
B|------108~----------------------------------------|
G|-7/9~-------95-2/7~-7p0--------------------------|
D|---------------------------------------------------|
A|---------------------------------------------------|
E|---------------------------------------------------|

Am F7M/C
Me sinto tão estranho aqui
G6
Diferente de você irmão
Am F7M/C
A sua forma em distorção
G6
Não pareço com ninguém sei lá
Am F7M/C G6
Pois eu sei que nós temos o mesmo destino então
F7M/C
Tô tentando me encontrar
Am
To tentando me entender
G
Por que tá tudo assim?

E|---------------------------------------------------|
B|---10-8-10---10-8-10---10-8-10---10-8-10---10-8-10-|
G|-9---------9---------9---------9---------9---------|
D|---------------------------------------------------|
A|---------------------------------------------------|
E|---------------------------------------------------|

E|----------------------8-8-7------------------------|
B|---10-8-10---10-8-10--------10-8-------------------|
G|-9---------9---------------------------------------|
D|---------------------------------------------------|
A|---------------------------------------------------|
E|---------------------------------------------------|

[Refrão]

Am F7M/C G
Meus olhos grandes de medo revelam a solução
Am F7M/C G
Meu coração tem segredos que movem a solidão
A solidão

( Am F7M/C G6 )
( Am F7M/C G6 )

[Violão 2]

E|---------------------------------------------------|
B|------108~----------------------------------------|
G|-7/9~-------95-2/7~-7p0--------------------------|
D|---------------------------------------------------|
A|---------------------------------------------------|
E|---------------------------------------------------|

E|---------------------------------------------------|
B|------108~----------------------------------------|
G|-7/9~-------95-2/7~-7p0--------------------------|
D|---------------------------------------------------|
A|---------------------------------------------------|
E|---------------------------------------------------|

Am F7M/C
Quem de nós vai insistir e não
Am F7M/C
Se entregar sem resistir então
Am F7M/C
Já não há mais pra onde ir
G F7M/C
Se entregar à solidão e não

E|---------------------------------------------------|
B|---------------------------------------------------|
G|---------------------------------------------------|
D|----------------------------------7-7-7-7-7--------|
A|-3-3-3-3-3-3-3-3-3-3-3-3/7-7-7-7--8-8-8-8-8--------|
E|-5-5-5-5-5-5-5-5-5-5-5-5/8-8-8-8-------------------|

E|-8-7-----------------------------------------------|
B|-----10-8-8h10-------------------------------------|
G|---------------7h9~--------------------------------|
D|---------------------------------------------------|
A|---------------------------------------------------|
E|---------------------------------------------------|

E|---------------------------------------------------|
B|---------------------------------------------------|
G|---------------------------------------------------|
D|----------------------------------7-7-7-7-7--------|
A|-0-0-0-0-3-3-3-3-3-3-3-3/7-7-7-7--8-8-8-8-8--------|
E|---------5-5-5-5-5-5-5-5/8-8-8-8-------------------|

E|---------------------------------------------------|
B|---------------------------------------------------|
G|---------------------------------------------------|
D|---------------------------------------------------|
A|-3-3-3-3-3-3-3-3-3-3-3-3/7-7-7-7-------------------|
E|-5-5-5-5-5-5-5-5-5-5-5-5/8-8-8-8-------------------|

E|---------------------------------------------------|
B|---------------------------------------------------|
G|---------------------------------------------------|
D|---------------------------------------------------|
A|-3-3-3-3-3-3-3-3-3-3-3-3-3-3-3-3-------------------|
E|-1-1-1-1-1-1-1-1-1-1-1-1-1-1-1-1-------------------|

E|---------------------------------------------------|
B|---------------------------------------------------|
G|---------------------------------------------------|
D|---------------------------------------------------|
A|-2-2-2-2-2-2-2-2-2-2-2-2/7-7-7-7-------------------|
E|-3-3-3-3-3-3-3-3-3-3-3-3/8-8-8-8-------------------|

[Refrão]

Am F7M/C G
Meus olhos grandes de medo revelam a solução
Am F7M/C G
Meu coração tem segredos que movem a solidão
A solidão

NUEVO FORO DE MÚSICA

¿Tienes alguna duda, consulta, pregunta, consejo o algo para compartir sobre esta canción?

¡Puedes abrir un hilo en el FORO para que la comunidad te ayude! Hacer una pregunta

ACORDES PARA GUITARRA

PIANO UKELELE
Am
Fmaj7/C
G6
G


Las más tocadas de Detonautas

Am
Fmaj7/C
G6
G