Por Onde Você Anda

Detonautas

Acordes

Subida por katiapineapple


Más Versiones
Ver. 2 Ver. 3 Ver. 4 Ver. 5 Ver. 6

Cambiar Cifrado
Americano Latino

Cambiar Tonalidad
-1 +1

Partir Pantalla Imprimir FAQ

+A
-A
Mudar para Português

Ver solo la LETRA
[Intro] Em  G  D
Em G D

Em G
Os dias ficaram estranhos
D
Até o cachorro percebeu
A
Na chuva que molhava as plantas

Encontrei um laço seu
Em G
Por onde você anda agora
D
Que não lembra mais de mim
A
Convivo com sua memória
Em G
Sentimento que me faz pensar

D A Em
Por que você não quebra o silêncio?
D A Em
Me diz o que eu posso fazer
D A Em
To me sentindo muito sozinho
G D
Se pelo menos eu pudesse te encontrar
Em G
E te pedir perdão pra mim já tava bom

( D A G )
( D A G )

Em G
Pensando em tudo que vivemos
D
É impossível não lembrar
A
Dos banhos que tomamos juntos

Até o dia clarear
Em G
O vidro do carro embaçado
D
O cheiro do seu edredom
A
Das noites que passei em claro
Em G
Sentimento que me faz pensar

D A Em
Por que você não quebra o silêncio?
D A Em
Me diz o que eu posso fazer
D A Em
To me sentindo muito sozinho
G D G D
Se pelo menos eu pudesse te encontrar e começar tudo de novo
G D
Se pelo menos eu pudesse te encontrar
Em G
E te pedir perdão pra mim já tava bom

[Solo]

D A Em D A Em
E|----------------------------------------------------|
B|----------------------------------------------------|
G|----------------------------------------7-7b9r7~----|
D|-7~--7/9-7-5-4-----------7~--7/9-7-5-4--------------|
A|---------------5-5h7p5------------------------------|
E|----------------------------------------------------|

D A Em
E|----------------------------------------------------|
B|-10-10-10/8-8-8-8/7-7-7-7/3-3-3-3-------------------|
G|----------------------------------------------------|
D|----------------------------------------------------|
A|----------------------------------------------------|
E|----------------------------------------------------|

D A Em
E|----------------------------------------------------|
B|-10-10-10/8-8-8-8/7-7-7-7/3-3-3-3-------------------|
G|----------------------------------------------------|
D|----------------------------------------------------|
A|----------------------------------------------------|
E|----------------------------------------------------|

G Bb
E|---------------------14-----------------------------|
B|--8~--8/10-10/11------------------------------------|
G|----------------------------------------------------|
D|----------------------------------------------------|
A|----------------------------------------------------|
E|----------------------------------------------------|

D A Em
Por que você não quebra o silêncio?
D A Em
Me diz o que eu posso fazer
D A Em
To me sentindo muito sozinho
G D G D
Se pelo menos eu pudesse te encontrar e começar tudo de novo
G D
Se pelo menos eu pudesse te encontrar
Em G D
E te pedir perdão pra mim já tava bom

ACORDES PARA GUITARRA

PIANO UKELELE
Em
G
D
A
Bb


Las más tocadas de Detonautas

Em
G
D
A
Bb