Quando o Sol Se For

Detonautas

Acordes

Subida por Diegogo


Más Versiones
Ver. 2 Ver. 3 Ver. 4 Ver. 5 Ver. 6

Cambiar Cifrado
Americano Latino

Cambiar Tonalidad
-1 +1

Partir Pantalla Imprimir FAQ

+A
-A
Mudar para Português

Ver solo la LETRA
[Intro]

[Guitarra 1]

E|-22222-22222-------------|
B|-33333-33333-------------|
G|-44444-22222-------------|
D|-44444-44444-------------|
A|-22222-22222-------------|
E|-------------------------|

[Guitarra 2]

E|-------------------------|
B|-------------------------|
G|-4----7------------------|
D|-4----7------------------|
A|-2----5------------------|
E|-------------------------|

[Solo]

A5 G5 B5 D5
E|--------------------------7-7-7-7-7-10-10-10-10-10-----|
B|-10-10-10-10-10-8-8-8-8-8-7-7-7-7-7-10-10-10-10-10-----|
G|--9--9--9--9--9-7-7-7-7-7------------------------------|
D|-------------------------------------------------------|
A|-------------------------------------------------------|
E|-------------------------------------------------------|

[Riff]

E|-9--9--9--10--9----9--9--9--9--10--9----9--9--9--9--10--9----9--12--12--12--12--12-|
B|10-10-10--10-10---10-10-10-10--10-10---10-10-10-10--10-10---10--10--10--10--10--10-|
G|-----------------------------------------------------------------------------------|
D|-----------------------------------------------------------------------------------|
A|-----------------------------------------------------------------------------------|
E|-----------------------------------------------------------------------------------|

A5 G5
Penso no que faço
B5 D5
No que fiz e no que vou fazer
A5 G5
Hoje o seu retrato
B5 D5
Só me mostra o que eu quero esquecer

[Refrão]

E|-------0------------0------------0-------------0--------|
B|-----1---1--------1---1--------1---1---------1---1------|
G|---2-------2----2-------2----2-------2-----2-------2----|
D|--------------------------------------------------------|
A|-0------------------------2-------------0---------------|
E|--------------3-----------------------------------------|

A5 G5 B5 D
Quando o sol se for meu amor vou onde você for
A5 G5 B5 D5
Quando o sol se for a luz indicará você pra mim

[Solo] A5 G5 B5 D5

A5 G5
Passo o tempo todo
B5 D5
Tudo passa passa solução
A5 G5
Sempre saio a noite
B5 D5
A noite sempre deixa a sensação

E|--------------------------|
B|--7-----------------------|
G|-----9-7-6-7-6------------|
D|--------------------------|
A|--------------------------|
E|--------------------------|

B5 D5
E eu fico a te esperar
B5 D5
Abro os olhos mas não posso ver
B5 D5
Não me canso de tentar
B5 D5
Eu não quero entender

( A5 G5 B5 D5 )

A5 G
Penso no que faço
B5 D5
No que fiz e no que vou fazer
A5 G5
Hoje o seu retrato
B5 D5
Só me mostra o que eu quero esquecer

[Solo]

E|--------------------------------|
B|--777---------------------------|
G|------999-777-6-7-6-7-6-7-6-----|
D|--------------------------------|
A|-----------------------------7--|
E|-----------------------------5--|

ACORDES PARA GUITARRA

PIANO UKELELE
A5
G5
B5
D5
D
G


Las más tocadas de Detonautas

A5
G5
B5
D5
D
G