Rota da Vida

Detonautas

Acordes

Subida por Delta


Más Versiones
Ver. 2 Ver. 3 Ver. 4 Ver. 5 Ver. 6

Cambiar Cifrado
Americano Latino

Cambiar Tonalidad
-1 +1

Partir Pantalla Imprimir FAQ

+A
-A
Mudar para Português

Ver solo la LETRA
[Intro]
C# A B


E|--------------------------|
B|------5-------------------|
G|-----6--6---------6-------|
D|----6----6-------7--7-----|
A|---4------4-----7----7----|
E|-------------5--------5---|

E|----------------|
B|----------------|
G|------8---8-----|
D|-----9---9--9---|
A|----9---9-------|
E|---7---7--------|


C#
Eu to perdido aqui
A
To sem dinheiro nenhum
B
Num rola um som, não tem mulher
C# A
O cheiro do deserto me deixa desperso
B
Não sei se eu vou voltar
C#
É q eu tava cansado
A B
Então fugi de casa com o meu carro, não vou a pé
C# A
Perdi o meu emprego e quase fui preso
B C#
Pra que que eu vou voltar?
A B C#
Vou pegar uma carona
A B
Lá pro paraíso
C#
Onde tem rock'n roll
A
Muita mulher
B
E altas ondas
C# A B
É tudo o que eu preciso
C# A
Na rota da vida
B C#
Me mostre uma saída
A B
Pra gente se encontrar
C# A
Na rota da vida
B C#
Me mostre uma saída
A B
Que eu quero te encontrar


(4x) C# A B

NUEVO FORO DE MÚSICA

¿Tienes alguna duda, consulta, pregunta, consejo o algo para compartir sobre esta canción?

¡Puedes abrir un hilo en el FORO para que la comunidad te ayude! Hacer una pregunta

ACORDES PARA GUITARRA

PIANO UKELELE
C#
A
B


Las más tocadas de Detonautas

C#
A
B