Só Por Hoje

Detonautas

Acordes

Subida por Mesi10


Más Versiones
Ver. 2 Ver. 3 Ver. 4 Ver. 5 Ver. 6

Cambiar Cifrado
Americano Latino

Cambiar Tonalidad
-1 +1

Partir Pantalla Imprimir FAQ

+A
-A
Mudar para Português

Ver solo la LETRA
[Riff 1]  Am  F  C  G

E|-------------------------------------------------------|
B|-------------------------------------------------------|
G|-------------------------------------------------------|
D|---7-7-7--7-7----3-3-3----10-10-10---5-5-5--5-5--5-5---|
A|---7-7-7--7-7----3-3-3----10-10-10---5-5-5--5-5--5-5---|
E|---5-5-5--5-5----1-1-1----8--8--8----3-3-3--3-3--3-3---|

[Riff 2]

E|-------------------------------------------------------|
B|-------------------------------------------------------|
G|---9-9-9--9-9----5-5-5----5-5-5---7-7-7--7-7--7-7------|
D|---7-7-7--7-7----3-3-3----x-x-x---5-5-5--5-5--5-5------|
A|--------------------------3-3-3------------------------|
E|-------------------------------------------------------|

Am F C
Tô trancado no meu quarto
G Am
Meia-noite sem ninguém
F C
Eu não durmo, mas pra mim
G
Tá tudo bem

Am F C
E lá fora o vento sopra
G Am
aquele som que a noite tem
F C G
Eu não ligo pois pra mim tá tudo bem

[Riff 3]

E|--------------------------------------------------|
B|--------------------------------------------------|
G|---------------------------------12h14p12---------|
D|-------14-12----12-14-----12-14-------------------|
A|-12-12-------14-------12--------------------------|
E|--------------------------------------------------|

E|--------------------------------------------------|
B|--------------------------------------------------|
G|---------------------------------14p12------------|
D|-------14-12----12-14-----12-14-------------------|
A|-12-12-------14-------12--------------------------|
E|--------------------------------------------------|

E|--------------------------------------------------|
B|--------------------------------------------------|
G|---------------------------------12h14p12---------|
D|-------14-12----12-14-----12-14-------------------|
A|-12-12-------14-------12--------------------------|
E|--------------------------------------------------|

E|--------------------------------------------------|
B|--------------------------------------------------|
G|---------------------------------14h16p14---------|
D|-------14-12----12-14-----12-14-------------------|
A|-12-12-------14-------12--------------------------|
E|--------------------------------------------------|

Em G
Se eu não faço mais questão de ter
D F
Uh uh uh uh
Em G
Se eu não tenho mais
D F
Uh uh uh uh

[Riff 4]

E|----------------| ------------------------------------|
B|----------------| ------------------------------------|
G|--9-7-9-7-5-7-7-| --12-11-12-11-------10-9-10-9-------|
D|----------------| --------------14~~------------12----|
A|----------------| ------------------------------------|
E|----------------| ------------------------------------|

C G F G
Passo o dia feliz sem você
C G F G
Mais um dia feliz sem você

( Am F C G )

E|------------------------------------------------------|
B|------------------------------------------------------|
G|------------------------------------------------------|
D|---7-7-7--7-7----3-3-3----10-10-10---5-5-5--5-5--5-5--|
A|---7-7-7--7-7----3-3-3----10-10-10---5-5-5--5-5--5-5--|
E|---5-5-5--5-5----1-1-1----8--8--8----3-3-3--3-3--3-3--|

Am
Se eu saio lá fora e 'tá escuro aqui
F C
Não tenho mais nada pra me consumir
G
E pra mim tá tudo bem

Am
E a noite vai embora e é melhor assim
F C
Aqui 'tá tranqüilo 'tá legal pra mim
G
E comigo tudo bem

Em G
Se eu não faço mais questão de ter
D F
Uh uh uh uh
Em G
Se eu não tenho mais
D F
Uh uh uh uh

C G F G
Passo o dia feliz sem você
C G F G
Mais um dia feliz sem você
C G F G
Passo o dia feliz sem você
C G F G
Mais um dia feliz sem você

C G F G
Passo o dia feliz sem você
F Em D G ( Am F C G )
Mais um dia feliz sem você

( Am )

ACORDES PARA GUITARRA

PIANO UKELELE
Am
F
C
G
Em
D


Las más tocadas de Detonautas

Am
F
C
G
Em
D